Oops, an error
Loading. Please wait.

Two Ghosts chords

version 5
version 5

Whole song

  • Based on studio version from album "Harry Styles".
  • Acoustic version based on the live performance on the Late Late Show.
  • This has chords for the song, along with the tabs ... Show more
  • Whenever it says 1-2-3- or 1-2 that means how many times you strum.
3,451 views 222 this week
no commentswrite comment
1 2 3 4 5
2 more votes to show rating
add to favorites
×
Save as Personal and add changes to this tab that will be seen only by you. Learn more ›
×
You can save this tab as Personal to edit and correct it or add notes. All changes will be seen only by you. Learn more »
launch autoscroll
font size
0
reset
transpose
0
reset
simplify chords
display chords
guitar tuner
edit
Autoscroll
slow
fast
+/-
esc
set tempo
stop
About this tab version
This has chords for the song, along with the tabs that the lead guitar plays throughout. It is marked in the different areas which part is for which guitar. Was this info helpful? Yes No
Strumming
There is no strumming pattern for this song yet. and get +5 IQ
[Intro]
(Rhythm)
E   F#m11   G#m6    F#m11

(Lead)
e|-----4/7------4/7--7h9p7--|-----4/7--5h4-------------|
B|--5--------5--------------|--5------------5--5/7-5~--|
G|--------------------------|--------------------------|
D|--------------------------|--------------------------|
A|--------------------------|--------------------------|
E|--------------------------|--------------------------|

[Verse 1]
E
Same lips red, same eyes blue
F#m11
Same white shirt, couple more tattoos
G#m6                          F#m11
But it's not you and it's not me
E
Tastes so sweet, looks so real
F#m11
Sounds like something that I used to feel
G#m6                     F#m11
But I can't touch what I see

[Chorus]
 A                   E
We're not who we used to be
 A                   E
We're not who we used to be
           C#m*        B*             A*      G#m6*    F#m11
We're just two ghosts standing in the place of you and me
C#m*      B*              A*                   E
Trying to remember how it feels to have a heartbeat

(Rhythm)
E   F#m11   G#m6    F#m11

(Lead)
e|-----4/7------4/7--7h9p7--|-----4/7--5h4-------------|
B|--5--------5--------------|--5------------5--5/7-5~--|
G|--------------------------|--------------------------|
D|--------------------------|--------------------------|
A|--------------------------|--------------------------|
E|--------------------------|--------------------------|

[Verse 2]
E
The fridge light washes this room white
F#m11
Moon dances over your good side
G#m6                    F#m11
This was all we used to need
E
Tongue-tied like we've never known
F#m11
Telling those stories we already told
G#m6                               F#m11
'Cause we don't say what we really mean

[Chorus]
      A                   E
We're not who we used to be
      A                   E
We're not who we used to be
           C#m*       B*              A*       G#m6*  F#m11
We're just two ghosts standing in the place of you and me
      A                   E
We're not who we used to be
      A                   E
We're not who we used to be
           C#m*       B*            A*         G#m6* F#m11
We're just two ghosts swimming in a glass half empty
C#m*      B*              A*                     E
Trying to remember how it feels to have a heart..beat

[Bridge]
(Rhythm)
E   F#m11   G#m6    F#m11  x2

(Lead)
e|---------------------------------------------|
B|--1/5--5/7--7/9-7--5/7--7/9-7-5b-------------|
G|---------------------------------4/6--6-4-6--|
D|---------------------------------------------|
A|---------------------------------------------|
E|---------------------------------------------|

e|---------------------------------------|
B|--1/5--5/7--7/9-7--5/7--7/9--7-5b------|
G|----------------------------------4\---|
D|---------------------------------------|
A|---------------------------------------|
E|---------------------------------------|

[Chorus]
      A*                  E
We're not who we used to be
      A*                  E
We're not who we used to be
           C#m*       B*              A*       G#m6*   F#m11
We're just two ghosts standing in the place of you and me
      A                   E
We're not who we used to be
         A                     E
We don't see what we used to see
           C#m*       B*            A*         G#m6* F#m11
We're just two ghosts swimming in a glass half empty
C#m*      B*              A*                      E
Trying to remember how it feels to have a heart...beat

(Rhythm)
E   F#m11   G#m6    F#m11

(Lead)
e|-----4/7------4/7--7h9p7--|-----4/7------------------|
B|--5--------5--------------|--5-----------------------|
G|--------------------------|--------------------------|
D|--------------------------|--------------------------|
A|--------------------------|--------------------------|
E|--------------------------|--------------------------|

[Outro]
C#m       B               A                     E
Trying to remember how it feels to have a heartbeat

(Rhythm)
E   F#m11   G#m6    F#m11

(Lead)
e|-----4/7------4/7--7h9p7--|-----4/7------------------|
B|--5--------5--------------|--5-----------------------|
G|--------------------------|--------------------------|
D|--------------------------|--------------------------|
A|--------------------------|--------------------------|
E|--------------------------|--------------------------|

C#m       B               A                             E*
I'm just trying to remember how it feels to have a heartbeat

************************************

| h  Hammer-on
| p  Pull-off
| /  Slide up
| ~  Vibrato
| b  Bend
| \  Slide down

************************************

            
            
Suggest correction
Creating personal tab
Creating personal tab
You can edit any tab online and save it as your Personal.

You can edit, replace or remove any tab part or add personal notes – all changes will be seen only by you.

Personal tabs can be accessed anytime from any device, even offline.
Learn more »
Give kudos to tab author, rate the tab!
1 2 3 4 5
comments
print report bad tab
guest
You may want to rate the tab now too:
select rating
Wanna post a correction for this tab? Suggest correction