Oops, an error
Loading. Please wait.

Romantic Tab

16 views 1 this week
no commentswrite comment
1 2 3 4 5
3 more votes to show rating
add to favorites
launch autoscroll
font size
0
reset
how to read this tab
guitar tuner
Autoscroll
slow
fast
+/-
esc
set tempo
stop
Help us to improve Ultimate-Guitar.com Take our survey!
×
Author
Difficulty
intermediate
About this tab version
Chord melody written by Harry Volpe in 1938. Was this info helpful? Yes No
--------------------------------------------------------------------------------------------------------------
                                       Romantic - Harry Volpe
--------------------------------------------------------------------------------------------------------------

e|-----------------|-7-----5---------|---7-5-3---------|-5-----3---------|
B|-----3---5---8---|-4-------4-------|---------4-------|-3-------3-------|
G|-----4---5---7---|-5-------5-------|-----------5-2-5-|-4-------4-------|
D|-----2---4---5---|-4-------4-------|-----------------|-5-------2-------|
A|-----------------|-----------------|-----------------|-----------------|
E|-----3---5---7---|---------5-------|-----------------|---------3-------|

e|-----------------|-7-----5---------|-7-----5-----5---|-----------------|
B|-----3---5---8---|-7-------5-------|-4-------4-------|-3-------0-------|
G|-----4---5---7---|-6-------6-------|-5-------5-------|-4-------0-------|
D|-----2---4---5---|-5-------5-------|-4-------4-------|-2-------2-------|
A|-----------------|---------0-------|-----------------|-----------------|
E|-----3---5---7---|-----------------|---------5-------|-3---------------|

e|-----------------|-7-----5---------|---7-5-3---------|-5-----3---------|
B|-3---3---5---8---|-4-------4-------|---------4-------|-3-------3-------|
G|-5---4---5---7---|-5-------5-------|-----------5-2-5-|-4-------4-------|
D|-4---2---4---5---|-4-------4-------|-----------------|-5-------2-------|
A|-----------------|-----------------|-----------------|-----------------|
E|-5---3---5---7---|---------5-------|-----------------|---------3-------|

e|-----------------|-7-----5---------|-7-----5-----5---|-3-------3-------|
B|-----3---5---8---|-7-------5-------|-4-------4-------|-3-------4-------|
G|-----4---5---7---|-6-------6-------|-5-------5-------|-4-------2-------|
D|-----2---4---5---|-5-------5-------|-4-------4-------|-2-------3-------|
A|-----------------|---------0-------|-----------------|-----------------|
E|-----3---5---7---|-----------------|---------5-------|-----------------|

e|-3---3---3---3---|-3-----1-1-------|-----3---6---4---|-8---------------|
B|-3---------------|-2---------------|-----------------|-9-------4-------|
G|-4---------------|-3---------------|-----------------|-8-------5-------|
D|-2---------------|-1---------------|-----------------|---------4-------|
A|-----------------|-----------------|-----------------|-8---------------|
E|-----------------|-----------------|-----------------|---------4-------|

e|-----------------|-----------------|-----------------|-6-------6--6--6-|
B|-----4---4---4/7-|-7-----6-6-------|-----6---7---9---|-7-------7--7--7-|
G|-----2-----------|-4-------4-------|-----4---5---7---|-6-------6--6--6-|
D|-----4-----------|-6-------6-------|-----6---7---9---|-----------------|
A|-----2-----------|-5-------5-------|-----5---6---8---|-6-------6--6--6-|
E|-----------------|-----------------|-----------------|-----------------|

e|-5---------------|-7-----5---------|---7-5-3---------|-5-----3---------|
B|-7---3---5---8---|-4-------4-------|---------4-------|-3-------3-------|
G|-5---4---5---7---|-5-------5-------|-----------5-2-5-|-4-------4-------|
D|-----2---4---5---|-4-------4-------|-----------------|-5-------2-------|
A|-5---------------|-----------------|-----------------|-----------------|
E|-----3---5---7---|---------5-------|-----------------|---------3-------|

e|-----------------|-7-----5---------|-7-----5-----5---|-3-------3---1---|
B|-----3---5---8---|-7-------5-------|-4-------4-------|-3-------1-------|
G|-----4---5---7---|-6-------6-------|-5-------5-------|-4-------2-------|
D|-----2---4---5---|-5-------5-------|-4-------4-------|-2-------3-------|
A|-----------------|---------0-------|-----------------|-----------------|
E|-----3---5---7---|-----------------|---------5-------|-----------------|

e|-6---4---10------||
B|-4-------10------||
G|-5-------9-------||
D|-4-------9-------||
A|-----------------||
E|-----------------||



************************************

| /   Slide up

************************************
Suggest correction
Give kudos to tab author, rate the tab!
1 2 3 4 5
comments
print report bad tab
guest
You may want to rate the tab now too:
select rating
Wanna post a correction for this tab? Suggest correction