Oops, an error
Loading. Please wait.

Peculiar Tab

115 views 1 this week
no commentswrite comment
1 2 3 4 5
3 more votes to show rating
add to favorites
launch autoscroll
font size
0
reset
how to read this tab
guitar tuner
Autoscroll
slow
fast
+/-
esc
set tempo
stop
Help us to improve Ultimate-Guitar.com Take our survey!
×
Peculiar – Harts

[Verse and Choruses]

Bbm7     Cm7    C#M7    C#M7

then 

e|------------------|
B|------------------|
G|------------------|
D|--6h8p6---6-------|
A|--------8---8p6-4-|
E|------------------|


Or

e|-----------------|
B|--1h3p1---1------|
G|--------3-—3p1---|
D|--------------4--|
A|-----------------|
E|-----------------|


[Outro]

F#   G#    C#   C#

_____________________________
Laugh and Learn Guitar Sydney
Suggest correction
Give kudos to tab author, rate the tab!
1 2 3 4 5
comments
print report bad tab
guest
You may want to rate the tab now too:
select rating
Wanna post a correction for this tab? Suggest correction