Oops, an error
Loading. Please wait.

Courage Bass Tab

73 views 1 this week
no commentswrite comment
1 2 3 4 5
3 more votes to show rating
add to favorites
launch autoscroll
font size
0
reset
guitar tuner
Autoscroll
slow
fast
+/-
esc
set tempo
stop
Help us to improve Ultimate-Guitar.com Take our survey!
×
Author
Difficulty
Tuning
intermediate
E A D G B E
G|-------------------------------------------------------------------------|
D|-------------------------------------------------------------------------|
A|-7---/-12-------------/14--------------15----------14-15-17--\---5---\---|
E|-------------------------------------------------------------------------|
   + 4 + 1 + 2 + 3 + 4 + 1 + 2 + 3 + 4 + 1 + 2 + 3 + 4  +  1 + 2 + 3 + 4 +

Rest

G|-----------------------------------|
D|-10--------------------------------|
A|-----------------5-5-5-/-17-17-----|
E|-----------------------------------|
   1 + 2 + 3 + 4 + 1 + 2 + 3  +  4 + 

Verse 0:20
G|-----------------------------------------------------------------|
D|-----------------------------------------------------------------|
A|------------/7-7-7-7-7-7-7-5-------------------------------------|
E|-0---0-0-0-0-----------------7-3---3-3-3-3-3-2-3-5-3-3-3-5-3-3-2-|
   1 + 2 + 3 + 4 + 1 + 2 + 3 + 4 + 1 + 2 + 3 + 4 + 1 + 2 + 3 + 4 +

G|-----------------------------------------------------------------|
D|-----------------------------------------------------------------|
A|---------------9---9---9---9-----3---3---3-0-3-4-5-r-------------|
E|---2-2-2-2-2-2---9---9---9---------------------------------------|
   1 + 2 + 3 + 4 + 1 + 2 + 3 + 4 + 1 + 2 + 3 + 4 + 1 + 2 + 3 + 4 +

G|-----------------------------------------------------------------|
D|---------------------------5-----------------5-------------------|
A|-3---3-3-3-3-3-3-5-5-5-5-5---5---7---5-5-7-----7---7-------------|
E|-------------------------------------------------------3---5-----|
   1 + 2 + 3 + 4 + 1 + 2 + 3 + 4 + 1 + 2 + 3 + 4 + 1 + 2 + 3 + 4 +

G|-----------------------------------------------------------------|
D|---------------------------5-----------------5-------------------|
A|-3---3-3-3-3-3-3-5-5-5-5-5---5---7-7-5-5-7-----7---7-------------|
E|-------------------------------------------------------3---2-----|
   1 + 2 + 3 + 4 + 1 + 2 + 3 + 4 + 1 + 2 + 3 + 4 + 1 + 2 + 3 + 4 +

Pre Chorus 0:40
G|-----------------------------------------------------------------|
D|-------------------------2-2-------------------------------------|
A|-3---3-3-3-3-3---5---3-5-----3-2--------------------/7-7-5---5---|
E|-------------------3-------------3---3-3-2---2---0---------5-----|
   1 + 2 + 3 + 4 + 1 + 2 + 3 + 4 + 1 + 2 + 3 + 4 + 1 + 2 + 3 + 4 +

G|--------------------------------------------------------------------|
D|--------------------------10-10-------------------------------------|
A|-3---3-3-3-3-3---3-/-10---------10--5-5-r-5-5-r-5-5-r---------------|
E|----------------------------------------------------------------2---|
   1 + 2 + 3 + 4 + 1 + 2  + 3  +  4 + 1 + 2 + 3 + 4 + 1 + 2 + 3 + 4 +

Chorus 0:50
G|-----------------------------------------------------------------|
D|-------------------------------------------------2-2-2-----------|
A|---------------------------------------------------------5-5-2---|
E|-3---3-3-3-3-3-3-2---2---2-2-2-2-0---0-0-0-0-0-0-----------------|
   1 + 2 + 3 + 4 + 1 + 2 + 3 + 4 + 1 + 2 + 3 + 4 + 1 + 2 + 3 + 4 +

G|-----------------------------------------------------------------|
D|---------------------------------------------------5-5-5-5-5-5-5-|
A|-3---3---3-3-3---5---5---5---5-----------------------------------|
E|---------------------------5-----3---3---3-3-3---3---------------|
   1 + 2 + 3 + 4 + 1 + 2 + 3 + 4 + 1 + 2 + 3 + 4 + 1 + 2 + 3 + 4 +

G|-----------------------------------------------------------------|
D|-----------------------------------------------------------------|
A|-3-3-3---3-3-3---5---5---5---5-------------------------------2---|
E|---------------------------5-----3---3---2-2-2---0---2---3-3-----|
   1 + 2 + 3 + 4 + 1 + 2 + 3 + 4 + 1 + 2 + 3 + 4 + 1 + 2 + 3 + 4 +

G|-------------------5-4-------------------------------------------|
D|-----------------------5-4-2-------------------------------------|
A|-3---3---3-3-3---3-----------2-3-5---5-5-5-5-5-5/17--\---5---\-7-|
E|-----------------------------------------------------------------|
   1 + 2 + 3 + 4 + 1 + 2 + 3 + 4 + 1 + 2 + 3 + 4 + 1 + 2 + 3 + 4 +

Interlude 1:09
G|-----------------------------------------------------------------|
D|-------------5-------------------------------5-------------------|
A|-----5-5-7-----7---7-----------7-----5-5-7-----7---7-----------7-|
E|-----------------------3---5---------------------------3---2-----|
   1 + 2 + 3 + 4 + 1 + 2 + 3 + 4 + 1 + 2 + 3 + 4 + 1 + 2 + 3 + 4 +

G|-----------------------------------------------------------------|
D|-------------5-------------------------------5-------------------|
A|-----5-5-7-----7---7-----------7-----5-5-7-------------------/-/-|
E|-----------------------3---5-------------------0---0-------------|
   1 + 2 + 3 + 4 + 1 + 2 + 3 + 4 + 1 + 2 + 3 + 4 + 1 + 2 + 3 + 4 +

Verse 1:19
G|-----------------------------------------------------------------|
D|-------------------------5---------5-4-2-------------------------|
A|-7-\-----------------5-r---5-0-----------5-3-2-------------------|
E|-------------------------------3---------------5-3---3---5-3-3-2-|
   1 + 2 + 3 + 4 + 1 + 2 + 3 + 4 + 1 + 2 + 3 + 4 + 1 + 2 + 3 + 4 +

G|-----------------------------------------------------------------|
D|---------------------2-4-4-2-----------------------------12------|
A|-------------------5---------5-2-3---3---3-0-3-4-5--/12------12\-|
E|---2-2---2-2-2---2-----------------------------------------------|
   1 + 2 + 3 + 4 + 1 + 2 + 3 + 4 + 1 + 2 + 3 + 4 + 1 + 2 + 3 + 4 +

1:29
G|------------------------------------------------------------------|
D|-----------------14----9------------------------------------------|
A|-7----------/14--------------9---10--------------10--10h12----10--|
E|---------------------------------------------10-------------------|
   1 + 2 + 3 + 4 + 1 + 2 + 3 + 4 + 1 + 2 + 3 + 4 + 1 + 2  + 3 + 4 +

G|------------------------------------------------------------------|
D|-----------------------------4--/10----10-9-7---------------------|
A|-9----------------------/5--------------------7-3-5-r-5-r-5-r/17\-|
E|-------------9-\-2-----2------------------------------------------|
   1 + 2 + 3 + 4 + 1 + 2 + 3 + 4 + 1 + 2 + 3 + 4 + 1 + 2 + 3 + 4 +

1:39
G|-----------------------------------------------------------------|
D|---------------------------------------------5-------------------|
A|-3---3-3-3-3-3---5-5-5-5-5---5---7---5-5-7-----7---7-------------|
E|---------------------------5---------------------------3---5-----|
   1 + 2 + 3 + 4 + 1 + 2 + 3 + 4 + 1 + 2 + 3 + 4 + 1 + 2 + 3 + 4 +

G|-------------5---7---7-7-9-7-------------------------------------|
D|-----------5-------9---------9---------------5-------------------|
A|-3---3-3-3-----------------------7-7-5-5-7-----7---7-------------|
E|-------------------------------------------------------3---2-----|
   1 + 2 + 3 + 4 + 1 + 2 + 3 + 4 + 1 + 2 + 3 + 4 + 1 + 2 + 3 + 4 +

Pre Chorus 1:49
G|-----------------------------------------------------------------|
D|---------------------------4-5-7-----4-5-4---4---2---5-----------|
A|-3---3---3-3-3---5-5-5---5-----------------5-------------5---5-5-|
E|---------------------------------3-3-----------------------------|
   1 + 2 + 3 + 4 + 1 + 2 + 3 + 4 + 1 + 2 + 3 + 4 + 1 + 2 + 3 + 4 +

G|------------------------------------------------------------------------------|
D|-------------------------10-10------------------------12--12--12--12--12--12--|
A|-3---3-3-3-3-3---3/10-10-------10-----5---5-5-5-5-5-/-------------------------|
E|------------------------------------------------------------------------------|
   1 + 2 + 3 + 4 + 1 +  2  +  3  +  4 + 1 + 2 + 3 + 4 + Tri pl  et  Tri pl et

1:59
G|-----------------------------------------------------------------|
D|-----------------------------9---10-------------h12--------------| h12 = 10h12 
A|-7---------------------9h10------------------10------------------| grace note
E|---------------------------------------------------------10--\---|
   1 + 2 + 3 + 4 + 1 + 2 + 3 + 4 + 1 + 2 + 3 + 4 + 1 + 2 + 3 + 4 +

G|-----------------------------------------------------------------|
D|-----------------------------------------------------------------|
A|---------------------------------5-5-r-5-5-r-5-5-r---------------|
E|-3---r---3---r---3---r---3---r-------------------------------2---|
   1 + 2 + 3 + 4 + 1 + 2 + 3 + 4 + 1 + 2 + 3 + 4 + 1 + 2 + 3 + 4 +

Chorus 2:09
G|-----------------------------------------------------------------|
D|-------------------------------------------------2-2-2-2---------|
A|---------------------------------------------2-5---------5-5-2-2-|
E|-3---3---3-3-3---2---2---2-2-2-2-0-0-0-0-0-0---------------------|
   1 + 2 + 3 + 4 + 1 + 2 + 3 + 4 + 1 + 2 + 3 + 4 + 1 + 2 + 3 + 4 +

G|-----------------------------------------------------------------|
D|-----------------------------------------------------5-5-7-7-5---|
A|-3---3---3-3-3---5-5-5-5-5---5-5-------------------5-----------5-|
E|---------------------------5-----3---3---3-3-3-3-3---------------|
   1 + 2 + 3 + 4 + 1 + 2 + 3 + 4 + 1 + 2 + 3 + 4 + 1 + 2 + 3 + 4 +

G|------------------------------------------------------------------|
D|------------------------------------------------------------------|
A|-3---3---3-3-3---5---5-5-5---5------/10--9----9---7-7-------------|
E|---------------------------5-----3---------10---------7-7-5-5-3---|
   1 + 2 + 3 + 4 + 1 + 2 + 3 + 4 + 1 + 2 + 3 +  4 + 1 + 2 + 3 + 4 +

G|-------------------5-4-------------------------------------------|
D|-----------------------5-4-2---------------------12--------------|
A|-3---3---3-3-3---3-----------2-3-5---5---5--/12------------------|
E|---------------------------------------------------------------0-|
   1 + 2 + 3 + 4 + 1 + 2 + 3 + 4 + 1 + 2 + 3 + 4 + 1 + 2 + 3 + 4 +

Interlude 2:28
G|-----------------------------------------------------------------|
D|-----------------------5-4---------------------------------------|
A|-----5---5h7---------5-----5---------5---------------5---5-5-r---|
E|---0---0-----5-0---7---------5-0---0---0-5h7-3-0---7---7-------0-|
   1 + 2 + 3 + 4 + 1 + 2 + 3 + 4 + 1 + 2 + 3 + 4 + 1 + 2 + 3 + 4 +

G|-----------------------------------------------------------------|
D|-----------------------5-4---------------------------------------|
A|-----5---------------5-----5---------5---------------------------|
E|---0---0-5h7-3-0---7---------5-0---0---0-5h7-3-0---0-0-0-------0-|
   1 + 2 + 3 + 4 + 1 + 2 + 3 + 4 + 1 + 2 + 3 + 4 + 1 + 2 + 3 + 4 +

Solo 2:38
G|-----------------------------------------------------------------|
D|---------------------------------------------------------5-5-----|
A|---------------3---3-3-3-3-3-3-------------2-3-5---5-5-5-----5-7-|
E|---0-0-0-0-0-0-----------------3---3-3-3-3-----------------------|
   1 + 2 + 3 + 4 + 1 + 2 + 3 + 4 + 1 + 2 + 3 + 4 + 1 + 2 + 3 + 4 +

G|---12-11-9---------------------------------------------------------|
D|-------------------------------------------------------------------|
A|-----------7-------------------5---------------2-3-5-5-r-----2-r-3-|
E|-------------7-7-8---8-8-8-8-8---3---3-3-3-3-3-----------3-r-------|
   1 +  2  + 3 + 4 + 1 + 2 + 3 + 4 + 1 + 2 + 3 + 4 + 1 + 2 + 3 + 4 +

Verse 2:48
G|----------------------------------------------7---------------------|
D|--------------------/10---10p9h10-----------------------------------|
A|---3-3---3-3-3---3-3----------------5---5---5---5---5---5-7-7-7-----|
E|------------------------------------------------------7---------7-5-|
   1 + 2 + 3 + 4 + 1 + 2  + 3  + 4  + 1 + 2 + 3 + 4 + 1 + 2 + 3 + 4 +

G|------------------------------------------------------------------|
D|------------------------------------------------------------------|
A|------------/10--9-9-9-9-9----9-9\------------5-7---7-5-----------|
E|-3---3---3-3---------------10-----0---0---0-7-----------7-5-0-0-0-|
   1 + 2 + 3 + 4 + 1 + 2 + 3 +  4 + 1 + 2 + 3 + 4 + 1 + 2 + 3 + 4 +

Pre Chorus 2:58
G|-----------------------------------------------------------------|
D|-----------------------------------------------------------------|
A|-3---3---3-3-3---5---5---5---5-------------------------------2---|
E|---------------------------5-----3---3---2-2-2---0---2---3-------|
   1 + 2 + 3 + 4 + 1 + 2 + 3 + 4 + 1 + 2 + 3 + 4 + 1 + 2 + 3 + 4 +

G|-----------------------------------------------------------19------------\-|
D|-------------------10-9----9----9-10-12---12-12-12-12-19-------------------|
A|-3---3---3-3-3---3------10---10--------------------------------------------|
E|---------------------------------------------------------------------------|
   1 + 2 + 3 + 4 + 1 +  2 +  3 +  4 +  1  + 2  +  3  +  4  + 1 + 2 + 3 + 4 +

Rest

3:12
G|-----------------------------------------------------12---11---9-------|
D|-5-/-10--------------12--------------9-------12--------------------12--|
A|-----------------------------12----------------------------------------|
E|-----------------------------------------------------------------------|
   4 + 1 + 2 + 3 + 4 + 1 + 2 + 3 + 4 + 1 + 2 + 3 + 4 + 1  + 2  + 3 + 4 +

G|-----------------------------------------------------------------|
D|-----------------------------------------------------------------|
A|-3---3---3-3-3-3-5-5-5-5-5-5-5-5-----------------------------2---|
E|---------------------------------3-3-3-3-2---2---0---0---0-------|
   1 + 2 + 3 + 4 + 1 + 2 + 3 + 4 + 1 + 2 + 3 + 4 + 1 + 2 + 3 + 4 +

G|-----------------------------------------------------------------|
D|-------------------------------------------------12--\-----------|
A|-3---3---3---3-3-3---3---3---3---5---5---5-/-12----------5---\---|
E|-----------------------------------------------------------------|
   1 + 2 + 3 + 4 + 1 + 2 + 3 + 4 + 1 + 2 + 3 + 4 + 1 + 2 + 3 + 4 

Chorus 3:27
G|-----------------------------------------------------------------|
D|-----------------------------------------------5---4---4---------|
A|---------------------------------------7---5-7-----------7-7-2---|
E|-3-3-3-/-15----3-2-2-2-/-14------0-0-0---0-----------------------|
   1 + 2 + 3 + 4 + 1 + 2 + 3 + 4 + 1 + 2 + 3 + 4 + 1 + 2 + 3 + 4 +

G|---------5---------------7---------------------------------------|
D|-------5---5-----------7---7-\-----------------5---5-4-5-4-5-5---|
A|-3-3-3-------3-3-5-5-5---------------------3h5-------------------|
E|---------------------------------3---3---3-----------------------|
   1 + 2 + 3 + 4 + 1 + 2 + 3 + 4 + 1 + 2 + 3 + 4 + 1 + 2 + 3 + 4 +

3:37
G|-------------------------------------------------------------------|
D|-------------------------------------------------------4---5-5-----|
A|-3---3---3-3-3---5-5-5---5-5-5------/10---9----9---7-7---------5-2-|
E|---------------------------------3----------10---------------------|
   1 + 2 + 3 + 4 + 1 + 2 + 3 + 4 + 1 + 2  + 3 +  4 + 1 + 2 + 3 + 4 +

G|------------------------------------------------------------11---11-----------|
D|-------------------10-9----9----9-10-12---12-12-14-14-14-14-------------------|
A|-3---3---3-3-3---3------10---10---------------------------------------5-------|
E|------------------------------------------------------------------------------|
   1 + 2 + 3 + 4 + 1 +  2 +  3 +  4 +  1  + 2  +  3  +  4  +  1  + 2  + 3 + 4 +

G|-----------------------------------|
D|-----------------------------------|
A|--------/17-17-r-----------------7-|
E|-----------------------------------|
   1 + 2 + 3  +  4 + 1 + 2 + 3 + 4 +

Outro 3:49
G|-----------------------------------------------------------------|
D|-------------5-------------------------------5-------------------|
A|-----5-5-7-----7---7-----------7-----5-5-7-----7---7-------------|
E|-----------------------3---5---------------------------3---2---1-|
   1 + 2 + 3 + 4 + 1 + 2 + 3 + 4 + 1 + 2 + 3 + 4 + 1 + 2 + 3 + 4 +

G|-----------------------------------------------------------------|
D|-------------5-------------------------------5-------------------|
A|-----5-5-7-----7---7-----------7-----5-5-7-----7---7-------------|
E|---0-------------------3---5---------------------------3---2---1-|
   1 + 2 + 3 + 4 + 1 + 2 + 3 + 4 + 1 + 2 + 3 + 4 + 1 + 2 + 3 + 4 +

Listen for timings
G|-----------------------------------------------------------------|
D|-------------------------/15-------------------------------------|
A|-----------------------------------------------------------------|
E|-----------------/13-----------------------------0---------------|
Tabbed by Dave Vucko




Suggest correction
Give kudos to tab author, rate the tab!
1 2 3 4 5
comments
print report bad tab
guest
You may want to rate the tab now too:
select rating
Wanna post a correction for this tab? Suggest correction