Oops, an error
Loading. Please wait.

Yume Sekai Bass Tab

version 1
version 1

Whole song

Interactive

37 views 3 this week
no commentswrite comment
1 2 3 4 5
3 more votes to show rating
add to favorites
launch autoscroll
font size
0
reset
guitar tuner
Autoscroll
slow
fast
+/-
esc
set tempo
stop
Help us to improve Ultimate-Guitar.com Take our survey!
×
Author
Difficulty
Tuning
intermediate
E A D G B E

0:23
G|-------------------------------------------------------------------------|
D|-------------------------------------------------------------------------|
A|-1---/---6---6---6---6---5---5---5---5---3---3---3-------1---1---1---1---|
E|-----------------------------------------------------3-------------------|
   3 + 4 + 1 + 2 + 3 + 4 + 1 + 2 + 3 + 4 + 1 + 2 + 3 + 4 + 1 + 2 + 3 + 4 +

G|-----------------------------------------------------------------|
D|--------------6------6h8-8---6-----------------------------------|
A|---------5h6-------6---------------------6h8-----------------5---|
E|-4-----4-------------------------6-----6-----6---6---6---6-------|
   1 + 2 + 3 + 4 + 1 + 2 + 3 + 4 + 1 + 2 + 3 + 4 + 1 + 2 + 3 + 4 +

Verse 0:35
G|---------8-------------------------------------------------------|
D|-----------------------------------------------------------------|
A|-6---------------6-r-6-------------------------------------------|
E|---------------6-------------6-\-3-------------1-3-r-3-----------|
   1 + 2 + 3 + 4 + 1 + 2 + 3 + 4 + 1 + 2 + 3 + 4 + 1 + 2 + 3 + 4 +

G|-----------------------------------------------------------------|
D|-----------------------------------------------------------------|
A|-------------------------------------------------------------5---|
E|-4-------4-----3-4-r-4-----------4---------------6-r-6-----------|
   1 + 2 + 3 + 4 + 1 + 2 + 3 + 4 + 1 + 2 + 3 + 4 + 1 + 2 + 3 + 4 +

G|-----------------------------------------------------------------|
D|-----------------------------------------------------------------|
A|-6---------------6-r-6-------------------------------------------|
E|---------------6-------------6-\-3-------------1-3-r-3-----------|
   1 + 2 + 3 + 4 + 1 + 2 + 3 + 4 + 1 + 2 + 3 + 4 + 1 + 2 + 3 + 4 +

G|-----------------------------------------------------------------|
D|---------------------------------------------6---8---------------|
A|-----------------------------------------6-----------8-----------|
E|-4---4---4-----3-4-r-4-------4---4-----------------------6---6---|
   1 + 2 + 3 + 4 + 1 + 2 + 3 + 4 + 1 + 2 + 3 + 4 + 1 + 2 + 3 + 4 +

Pre Chorus 0:59
G|-----------------------------------------------------------------|
D|-----------------------------------------------------------------|
A|-----------------------------------------------------------------|
E|-4-------------------------------4-----------------------4---/---|
   1 + 2 + 3 + 4 + 1 + 2 + 3 + 4 + 1 + 2 + 3 + 4 + 1 + 2 + 3 + 4 +

G|-----------------------------------------------------------------|
D|-----------------------------------------------------------------|
A|-10----------------------\---------------------------------------|
E|---------------------------------8---------------8-------6-------|
   1 + 2 + 3 + 4 + 1 + 2 + 3 + 4 + 1 + 2 + 3 + 4 + 1 + 2 + 3 + 4 +

G|-----------------------------------------------------------------|
D|-----------------------------------------------------------------|
A|-----------------------------------------------------------------|
E|-4-------------------------------6-----------------------6---\---|
   1 + 2 + 3 + 4 + 1 + 2 + 3 + 4 + 1 + 2 + 3 + 4 + 1 + 2 + 3 + 4 +

G|-----------------------------------------------------------------|
D|-----------------------------------------------------------------|
A|-------------------------------------------------1---1-/-13------|
E|-1---1---1---1---3---3---3---1-3-4---4---4-1-3-4-----------------|
   1 + 2 + 3 + 4 + 1 + 2 + 3 + 4 + 1 + 2 + 3 + 4 + 1 + 2 + 3 + 4 +

Chorus 1:23
G|-----------------------------------------------------------------|
D|---------------------------------------------3-4-5---5-----------|
A|-6---6---6---6---6---6---6---6---5---5---5---------------5-------|
E|-------------------------------------------------------------3---|
   1 + 2 + 3 + 4 + 1 + 2 + 3 + 4 + 1 + 2 + 3 + 4 + 1 + 2 + 3 + 4 +

G|-----------------------------------------------------------------|
D|-----------------------------------------------------------------|
A|-3---3---3---3---3---3---3---2---1---1---1---5---6---6---6-6-----|
E|-------------------------------------------------------------6-6-|
   1 + 2 + 3 + 4 + 1 + 2 + 3 + 4 + 1 + 2 + 3 + 4 + 1 + 2 + 3 + 4 +

G|-----------------------------------------------------------------|
D|-----------------------------------------------------------------|
A|-----------------11--11--11------------------3h5-3---3-------3h5-|
E|-4---4---4---4-/-------------11\-3---3---3---------------3-------|
   1 + 2 + 3 + 4 + 1 + 2 + 3 + 4 + 1 + 2 + 3 + 4 + 1 + 2 + 3 + 4 +

G|---------------------------------|
D|-3---3---3-----------------------|
A|-------------5p3-1---1-/-13----\-|
E|---------------------------------|
   1 + 2 + 3 + 4 + 1 + 2 + 3 + 4 +

Interlude 1:44
G|-------------------------------------------------------------------|
D|-------------12h13-12--12--12------10--10--12--13------------------|
A|-6---6-/-13--------------------13------------------13--------------|
E|-----------------------------------------------------------13\-6-6-|
   1 + 2 + 3 + 4  +  1 + 2 + 3 + 4 + 1 + 2 + 3 + 4 + 1 + 2 + 3 + 4 +

G|-----------------------------------------------------------------|
D|-------------6-------------------------------------------12--\---|
A|---------5h6---------6-------------------6h8---------13----------|
E|-4-----4-----------------4-------6-----6-----6-------------------|
   1 + 2 + 3 + 4 + 1 + 2 + 3 + 4 + 1 + 2 + 3 + 4 + 1 + 2 + 3 + 4 +

Verse 1:55
G|-----------------------------------------------------------------|
D|-----------------------------------------------------------------|
A|-6---------------6-r-6-------------------------------------------|
E|---------------6-------------6-\-3-------------1-3-r-3-----------|
   1 + 2 + 3 + 4 + 1 + 2 + 3 + 4 + 1 + 2 + 3 + 4 + 1 + 2 + 3 + 4 +

G|-----------------------------------------------------------------|
D|-----------------------------------------------------------------|
A|-----------------------------------------------------6h8---------|
E|-4---------------4-r-4---4-------4---------------6-r-----6-------|
   1 + 2 + 3 + 4 + 1 + 2 + 3 + 4 + 1 + 2 + 3 + 4 + 1 + 2 + 3 + 4 +

G|-----------------------------------------------------------------|
D|---------------------------------5---------------5-r-5-----------|
A|-6---------------6-r-6-------6-8---------------6-------------6---|
E|---------------6-------------------------------------------------|
   1 + 2 + 3 + 4 + 1 + 2 + 3 + 4 + 1 + 2 + 3 + 4 + 1 + 2 + 3 + 4 +

G|-----------------------------------------------------------------|
D|-6---------------6-r-6-------8---9---8---6-------8---------------|
A|---------------6-------------------------------------------------|
E|-----------------------------------------------------------------|
   1 + 2 + 3 + 4 + 1 + 2 + 3 + 4 + 1 + 2 + 3 + 4 + 1 + 2 + 3 + 4 +

Pre Chorus 2:19
G|-----------------------------------------------------------------|
D|---------------------------------6-r-----------------------------|
A|-----------------------------5h6---------------------------------|
E|-4-r-4---4-r-4---4-r-4---4-r---------4---4-r-4---4-r-4---4-r-3-/-|
   1 + 2 + 3 + 4 + 1 + 2 + 3 + 4 + 1 + 2 + 3 + 4 + 1 + 2 + 3 + 4 +

G|---------------------------------------------------------------------|
D|---------------------------------------------10--8-/-15--12h13-------| 12h13 = grace note
A|-10r-10--10r-10--10r-10--------------10--8-----------------------13--|
E|-------------------------10--9---8-----------------------------------|
   1 + 2 + 3 + 4 + 1 + 2 + 3 + 4 + 1 + 2 + 3 + 4 + 1 + 2  +   3  + 4 +

G|-----------------------------------------------------------------|
D|-----------------------------------------------------------------|
A|-11--\-----------------------------------------------------------|
E|---------4-r-4---4-r-----4-r-4---6-r-6---6---6---6---6---4---3---|
   1 + 2 + 3 + 4 + 1 + 2 + 3 + 4 + 1 + 2 + 3 + 4 + 1 + 2 + 3 + 4 +

G|-----------------------------------------------------------------|
D|---------3---3-4-5---5-------------------------------5-6-8-------|
A|-------------------------6---------------------------------------|
E|-1---1-----------------------6---4---4---4---3-4-6---------------|
   1 + 2 + 3 + 4 + 1 + 2 + 3 + 4 + 1 + 2 + 3 + 4 + 1 + 2 + 3 + 4 +

Chorus 2:42
G|-----------------------------------------------------------------|
D|---------------------------------------------3-4-5---5-----------|
A|-6---6---6---6---6---6---6---6---5---5---5---------------5-------|
E|-------------------------------------------------------------3---|
   1 + 2 + 3 + 4 + 1 + 2 + 3 + 4 + 1 + 2 + 3 + 4 + 1 + 2 + 3 + 4 +

G|---------------------------------------------------------------------|
D|----------------10-13-12-10------------------------------------------|
A|-3---3---3---10-------------10-------------------8---6---6-----------|
E|---------------------------------8---6---6---6---------------6---6-6-|
   1 + 2 + 3 + 4  +  1  +  2 + 3 + 4 + 1 + 2 + 3 + 4 + 1 + 2 + 3 + 4 +

G|-----------------------------------------------------------------|
D|-----------------------------------------------------------------|
A|-----------------11--11--11------------------3h5-3---3-------3h5-|
E|-4---4---4---4-/-------------11\-3---3---3---------------3-------|
   1 + 2 + 3 + 4 + 1 + 2 + 3 + 4 + 1 + 2 + 3 + 4 + 1 + 2 + 3 + 4 +

G|-----------------------------------------------------------------|
D|-3---3---3---------------8---------------------------------------|
A|-------------5p3-----------8-----6-6-6-5-5-5-4-4-4-3-3-3-2-2-2-2-|
E|-----------------6---6-------6-6---------------------------------|
   1 + 2 + 3 + 4 + 1 + 2 + 3 + 4 + 1 + 2 + 3 + 4 + 1 + 2 + 3 + 4 +

Bridge 3:06
G|-----------------------------------------------------------------|
D|---------------8-r---8-------------------------8-r---8-----------|
A|-1---/---8---8-----8-------6-5-8-1---/---8---8-----8-----8-6-----|
E|-------------------------------------------------------------6-6-|
   1 + 2 + 3 + 4 + 1 + 2 + 3 + 4 + 1 + 2 + 3 + 4 + 1 + 2 + 3 + 4 +

G|-------------------------------------------------------8-10-8-------|
D|-------------10-8-r-8--------------------------6-5---8--------8-----|
A|---------10-----------10-8-6---------------6--------------------6-6-|
E|-8-----------------------------6---4---4----------------------------|
   1 + 2 + 3 + 4  + 1 + 2  + 3 + 4 + 1 + 2 + 3 + 4 + 1 + 2 + 3 + 4 +

G|----------------------------------------------------------------------|
D|--------------------------------------------------6-5-----------------|
A|-8---8---8------10-r----10--------------------6-----------5-----------|
E|-------------10------10----------10-\-4---4-------------------4---3---|
   1 + 2 + 3 + 4  +  1 +  2  + 3 + 4  + 1 + 2 + 3 + 4 + 1 + 2 + 3 + 4 +

G|-------------------------------------------------------------------|
D|-------------3---------------------------------8-r---8-10-8--------|
A|-----------3---3-------1-3-------1---1---8---8-----8--------10-8-8-|
E|-1---1---1-------1---1-------3-4-----------------------------------|
   1 + 2 + 3 + 4 + 1 + 2 + 3 + 4 + 1 + 2 + 3 + 4 + 1 + 2 +  3 +  4 +

G|-------------10-/-15------\---\---|
D|-8--------------------------------|
A|----------------------------------|
E|----------------------------------|
   1 + 2 + 3 + 4  + 1 + 2 + 3 + 4 + 

Rest

Chorus 3:44
G|---------------------------------------------------------------15--\---|
D|-------------------------------------------------10h12-10--13----------|
A|-6-/-11------11------11------11--11--10------10------------------------|
E|-----------------------------------------------------------------------|
   4 + 1 + 2 + 3 + 4 + 1 + 2 + 3 + 4 + 1 + 2 + 3 + 4  +  1 + 2 + 3 + 4 +

G|----------------------------------------------------------------15----|
D|-3-r-3---3-----------------------------------6-8-----8-10-13-15----15-|
A|-----------------1-r-1---1---1---1-----8-8-8-------8------------------|
E|-------------1h3------------------------------------------------------|
   1 + 2 + 3 + 4 + 1 + 2 + 3 + 4 + 1 + 2 + 3 + 4 + 1 + 2 +  3  +  4  +

Rest

Chorus (Key Change)
G|-----------------------------------------------------------------|
D|---------------------------------------------4-5-6---6-----------|
A|---------7-----/-7---7-------7---6---6---6---------------6-------|
E|-0-----------0-----------0-----------------------------------4---|
   1 + 2 + 3 + 4 + 1 + 2 + 3 + 4 + 1 + 2 + 3 + 4 + 1 + 2 + 3 + 4 +

G|----------------------------------------------------------------------|
D|----------------11-14-13-11-----------------------------------9---8---|
A|-4---4---4---11---------------11------------------6---7---7-----------|
E|----------------------------------9---7---7---7---------7-------------|
   1 + 2 + 3 + 4  +  1  +  2  + 3 + 4 + 1 + 2 + 3 + 4 + 1 + 2 + 3 + 4 +

G|-------------------------------------------------------------4---|
D|-7---7---7---7---7---7---7---------------------------------------|
A|-----------------------------7-\---------6---6---4---6---7-------|
E|---------------------------------4---4---------------------------|
   1 + 2 + 3 + 4 + 1 + 2 + 3 + 4 + 1 + 2 + 3 + 4 + 1 + 2 + 3 + 4 +

G|-------------------------4---------------------------------------|
D|-----------------------------4---2-------2-1-2-1---------11------|
A|---------------0-2-r-2---------------------------4--/11------11\-|
E|-2-r-2---2---4---------------------------------------------------|
   1 + 2 + 3 + 4 + 1 + 2 + 3 + 4 + 1 + 2 + 3 + 4 + 1 + 2 + 3 + 4 +

G|-------------------------4---4-----------------------------------|
D|---------------------------4----/11------9-------8---------------|
A|---------------0-2-r-2-------------------------------------------|
E|-2-r-2---2---4---------------------------------------------------|
   1 + 2 + 3 + 4 + 1 + 2 + 3 + 4 + 1 + 2 + 3 + 4 + 1 + 2 + 3 + 4 +
Tabbed by Dave Vucko
Suggest correction
Give kudos to tab author, rate the tab!
1 2 3 4 5
comments
print report bad tab
guest
You may want to rate the tab now too:
select rating
Wanna post a correction for this tab? Suggest correction