Oops, an error
Loading. Please wait.

Overfly bass

376 views 3 this week
no commentswrite comment
1 2 3 4 5
3 more votes to show rating
add to favorites
×
Save as Personal and add changes to this tab that will be seen only by you. Learn more ›
×
You can save this tab as Personal to edit and correct it or add notes. All changes will be seen only by you. Learn more »
launch autoscroll
font size
0
reset
guitar tuner
edit
Autoscroll
slow
fast
+/-
esc
set tempo
stop
Intro 0:18
F#|-----------------------------------------------------------------|
C#|-----------------------------------------------------------------|
G#|-----------------5-5-5-5-5-5-5-5-7-7-7-7-7-7-7-7-----------------|
D#|-2-2-2-2-2-2-2-2---------------------------------5-5-5-5-5-5-5-5-|
    1 + 2 + 3 + 4 + 1 + 2 + 3 + 4 + 1 + 2 + 3 + 4 + 1 + 2 + 3 + 4 +

F#|-------------------------------------------------|
C#|-------------------------------------------------|
G#|-4-4-4-4-4-4-4-4-5-5-5-5-5-5-5-5-----------------|
D#|---------------------------------2-2-------0-----|
    1 + 2 + 3 + 4 + 1 + 2 + 3 + 4 + 1 + 2 + 3 + 4 + 

F#|-----------------------------------------------------------------|
C#|---------------------------------------------------------4-4-2-2-|
G#|-4-4-4-4-4-4---4-5-5-5-5-5-5-5-5/----------------------4---------|
D#|-------------5-------------------0-0-0-0-0-0-0-0-2-2-2-----------|
    1 + 2 + 3 + 4 + 1 + 2 + 3 + 4 + 1 + 2 + 3 + 4 + 1 + 2 + 3 + 4 +

F#|-------------------------7-7---------4-6p4---------7-7-7-7-7-7-7-|
C#|-----------------------7-----7---4-4-----------------------------|
G#|-4-4-4-4-4---4-4-5-5-5---------------------7---5-----------------|
D#|-----------5-----------------------------------------------------|
    1 + 2 + 3 + 4 + 1 + 2 + 3 + 4 + 1 + 2 + 3 + 4 + 1 + 2 + 3 + 4 +

Rest

Verse 0:58
F#|-11/14--------------------------------------------------------------14---13---------------|
C#|---------14-12-9-11---------------------------11-14-12----------------------14---12-11----|
G#|-------------------------------------------12------------------------------------------12-|
D#|------------------------------------------------------------------------------------------|
       +  3 +  4  + 1 + 2 + 3 + 4 + 1 + 2 + 3 +  4  +  1 + 2 + 3 + 4 + 1  + 2  +  3 +  4  +

F#|-11------------11-------------------------------------------------------|
C#|------------------14--------------12---------------------12-14-12-11----|
G#|------------------------------------------------------12-------------12-|
D#|------------------------------------------------------------------------|
    1 + 2 + 3 + 4 +  1 + 2 + 3 + 4 + 1 + 2 + 3 + 4 + 1 + 2  +  3  +  4  +

Pre Chorus 1:13
F#|---------------------------------------------------------------9---------|
C#|---------------4/9-9-9-9-9-11-12-9---------------6/11-11-11-11---12-11-9-|
G#|-2-2-2-2-2-2-2---------------------4-4-4-4-4-4-4-------------------------|
D#|-------------------------------------------------------------------------|
    1 + 2 + 3 + 4 + 1 + 2 + 3 +  4  + 1 + 2 + 3 + 4 + 1  +  2  +  3 +  4  +

F#|-------------------------------13-14--------------------11-9------------------------------|
C#|---------------7/12-12-12-12---------12-------6-7-6---9------11---------------------------|
G#|-5-5-5-5-5-5-5--------------------------7---9-------7-----------9-------------------------|
D#|--------------------------------------------------------------------0----------------/12\-|
    1 + 2 + 3 + 4 + 1  +  2  +  3 +  4  +  1 + 2 + 3 + 4 + 1  + 2  + 3 + 4 + 1 + 2 + 3 + 4 +

Chorus 1:30
F#|-----------------------------------------------------------------|
C#|---------------------------------------------------------9-7-----|
G#|-----------------5-5-5-5-5-5-4-5------/7-7-7-----------7-----9-9-|
D#|-2-2-2-2-2-2-2-2-----------------0-0-0-------7-7-5-5-5-----------|
    1 + 2 + 3 + 4 + 1 + 2 + 3 + 4 + 1 + 2 + 3 + 4 + 1 + 2 + 3 + 4 +

F#|-------------------------------------------------------------9-9-|
C#|--------------------------------------h9---7-----7---9---7-7-----|
G#|-------------2-4-5-5-5-5-5-5-4-5-7-----------9-7---7---7---------|
D#|-2-2-2-2-2-2-----------------------------------------------------|
    1 + 2 + 3 + 4 + 1 + 2 + 3 + 4 + 1 + 2 + 3 + 4 + 1 + 2 + 3 + 4 +

F#|-----------------------------------------------4-----6-4---4-----|
C#|-----------------------------4-7-------6---7-----4-4---------4---|
G#|-4-4-4-4-4-0-4-7-5-5-5-5-5-5-----7-7-7-------------------------7-|
D#|-----------------------------------------------------------------|
    1 + 2 + 3 + 4 + 1 + 2 + 3 + 4 + 1 + 2 + 3 + 4 + 1 + 2 + 3 + 4 +

F#|------------------------------------------------------|
C#|----------------------/12-12-12-12--------------------|
G#|-4-4-4-0-0-0-4-4-5-5-5-------------12-9-9-5-7---7-7-7-|
D#|------------------------------------------------------|
    1 + 2 + 3 + 4 + 1 + 2 +  3  +  4  +  1 + 2 + 3 + 4 + 

Interlude
F#|-----------------------------------------------------------------|
C#|-----------------------------------------------------------------|
G#|-4-4-4-4-4-4-4-4-4-4-4-4-4-4-4-4-5-5-5-5-5-5-5-5-5-5-5-5-5-5-5-5-|
D#|-----------------------------------------------------------------|
    1 + 2 + 3 + 4 + 1 + 2 + 3 + 4 + 1 + 2 + 3 + 4 + 1 + 2 + 3 + 4 +

F#|-------------------------------------------------------6-7-------|
C#|-----------------------------------------------------7-----7-----|
G#|-4-4-4-4-4-4-4-4-4-4-4-4-4-4-4-4-5-5-5-5-5-5-5-5-5-5---------5-5-|
D#|-----------------------------------------------------------------|
    1 + 2 + 3 + 4 + 1 + 2 + 3 + 4 + 1 + 2 + 3 + 4 + 1 + 2 + 3 + 4 +

Verse 2:10
F#|-----------------------------------------------------------------|
C#|-------------------------------------------------------------4---|
G#|-4-4-4-4-4-4-4-4-4-4-4-4-4-4-7-7-5-5-5-5-5-5-5-5-5-5-5-5-5-5---5-|
D#|-----------------------------------------------------------------|
    1 + 2 + 3 + 4 + 1 + 2 + 3 + 4 + 1 + 2 + 3 + 4 + 1 + 2 + 3 + 4 +

F#|-----------4-6-------------------------------------------------------|
C#|---------------4-------9---7----------------------------/12-12-12-12-|
G#|-----------------7-7-7---------7-5-5-5-5-5-5-5-5-5-5-5-5-------------|
D#|-2-2-2-2-2-----------------------------------------------------------|
    1 + 2 + 3 + 4 + 1 + 2 + 3 + 4 + 1 + 2 + 3 + 4 + 1 + 2 + 3  +  4  +

Pre Chorus 2:25
F#|---------------------------------------------------------------9---------|
C#|---------------4/9-9-9-9-9-11-12-9---------------6/11-11-11-11---12-11-9-|
G#|-2-2-2-2-2-2-2---------------------4-4-4-4-4-4-4-------------------------|
D#|-------------------------------------------------------------------------|
    1 + 2 + 3 + 4 + 1 + 2 + 3 +  4  + 1 + 2 + 3 + 4 + 1  +  2  +  3 +  4  +

F#|-------------------------------13-14--------------------11---11-9-------------------------|
C#|---------------7/12-12-12-14---------12-----6-7-9-7---9----9------------------------------|
G#|-5-5-5-5-5-5-5--------------------------7-----------7-------------------------------------|
D#|--------------------------------------------------------------------0----------------/12\-|
    1 + 2 + 3 + 4 + 1  +  2  +  3 +  4  +  1 + 2 + 3 + 4 + 1  + 2  + 3 + 4 + 1 + 2 + 3 + 4 +

Chorus 2:41
F#|-----------------------------------------------------------------|
C#|-----------------------------------------------------------------|
G#|-----------------5-5-5-5-5-5-4-5------/7-7-7-----------4---4-7-7-|
D#|-2-2-2-2-2-2-2-2-----------------0-0-0-------7-7-5-5-5---5-------|
    1 + 2 + 3 + 4 + 1 + 2 + 3 + 4 + 1 + 2 + 3 + 4 + 1 + 2 + 3 + 4 +

F#|-----------------------------------------------------------------|
C#|-------------------------------------------6-7-9-7---9-7-7-------|
G#|-----------------5-5-5-5-5-5-5-5/-----/7-----------7-------7-7-5-|
D#|-2-2-2-2-2-2-2-2-----------------0-0-0---------------------------|
    1 + 2 + 3 + 4 + 1 + 2 + 3 + 4 + 1 + 2 + 3 + 4 + 1 + 2 + 3 + 4 +

F#|-----------------------------------------------4-----6-4---------|
C#|---------------------------------------6---7-----4-4-------4-----|
G#|-4-4-4-4-4-0-4-4-5-5-5-5-5-5-5-5-7-7-7-----------------------7-5-|
D#|-----------------------------------------------------------------|
    1 + 2 + 3 + 4 + 1 + 2 + 3 + 4 + 1 + 2 + 3 + 4 + 1 + 2 + 3 + 4 +

F#|-------------------------------------------------9---|
C#|----------------------/12-12-12----------------9---9-|
G#|-4-4-4-0-0-0-4-4-5-5-5----------12---9-9---7---------|
D#|-----------------------------------------------------|
    1 + 2 + 3 + 4 + 1 + 2 +  3  +  4  + 1 + 2 + 3 + 4 +

Bridge 3:08
F#|-----------------------------------------------------------------|
C#|-------7---------------------------------------------2-4-----4---|
G#|-6-6-6-------6---5-5-5-------5---4-4-4-------4-----------------4-|
D#|-----------------------5---------------4-4-4-----2-2-------------|
    1 + 2 + 3 + 4 + 1 + 2 + 3 + 4 + 1 + 2 + 3 + 4 + 1 + 2 + 3 + 4 +

F#|-------------4---6---6-------------------7-7-7-------------------|
C#|-------4---------------6---6-----------7-------7-----------------|
G#|-2---2-----------------------4---5-5-5-----------4-4-4-4-4-4-2-4-|
D#|-----------------------------------------------------------------|
    1 + 2 + 3 + 4 + 1 + 2 + 3 + 4 + 1 + 2 + 3 + 4 + 1 + 2 + 3 + 4 +

Solo 3:22
F#|-------------------------------------------------6-6-6-4-4-4-----|
C#|-----------------------4-4-4-6-7-4---4-4-4-4-4-4-------------4-4-|
G#|-5-5-5-5-5-5-5-5-5-5-5-------------------------------------------|
D#|-----------------------------------------------------------------|
    1 + 2 + 3 + 4 + 1 + 2 + 3 + 4 + 1 + 2 + 3 + 4 + 1 + 2 + 3 + 4 +

F#|---------------------------------------------------------9-----------------------|
C#|-----------------------------------------------------------9---------------------|
G#|-2---2-------2-2-4-4-4-------4-7-5---5-------5-5-7---7-------7-4---4-4-4-4-4-4-4-|
D#|-------2-2-2-----------4-4-4-----------5-5-5-------------------------------------|
    1 + 2 + 3 + 4 + 1 + 2 + 3 + 4 + 1 + 2 + 3 + 4 + 1 + 2 + 3 + 4 + 1 + 2 + 3 + 4 +

Chorus 3:38
F#|-----------------------------------------------------------------|
C#|-----------------------------------------------------------------|
G#|-/-\-------------5-5-5-------5-5------/7-7-7-----------4-4-4-----|
D#|-----2---2-2-2-2-------5-5-5-----0---0-------7-7-5-5-5-------5-4-|
    1 + 2 + 3 + 4 + 1 + 2 + 3 + 4 + 1 + 2 + 3 + 4 + 1 + 2 + 3 + 4 +

F#|-----------------------------------------------------------------|
C#|---------------2-----------------------6---7---9-7---9-7-7-7-----|
G#|-----------2-4---5-5-5-5-5-5-5-5-7-7-7-------------7---------7-7-|
D#|-2-2-2-2-2-------------------------------------------------------|
    1 + 2 + 3 + 4 + 1 + 2 + 3 + 4 + 1 + 2 + 3 + 4 + 1 + 2 + 3 + 4 +

F#|--------------------------------------------------------------------|
C#|---------------------------------------6---7---9/11-11-11-9-9-9-----|
G#|-4-4-4-0-0-0-4-4-5-5-5-0-0-0-4-5-7-7-7--------------------------9-7-|
D#|--------------------------------------------------------------------|
    1 + 2 + 3 + 4 + 1 + 2 + 3 + 4 + 1 + 2 + 3 + 4 + 1  +  2  + 3 + 4 +

F#|-----------------------------------------------------|
C#|----------------------/12-12-12----------------------|
G#|-4-4-4-0-0-0-4-4-5-5-5----------12-------------------|
D#|-------------------------------------2-2-------0-----|
    1 + 2 + 3 + 4 + 1 + 2 +  3  +  4  + 1 + 2 + 3 + 4 + 

Outro 4:06
F#|------------------------------------------------------------------|
C#|---------------------------------------6-6-7-7-9-----11-9---9-----|
G#|-4-4-4-4-4-4-4-4-5-5-5-5-5-5-4-5-7-7-7-----------9-9----------9-9-|
D#|------------------------------------------------------------------|
    1 + 2 + 3 + 4 + 1 + 2 + 3 + 4 + 1 + 2 + 3 + 4 + 1 + 2  + 3 + 4 +

F#|-------------------------7-7----------11-11-------------------------|
C#|-----------------------7-----7-----11-------------------------------|
G#|-4-4-4-4-4-4-0-4-5-5-5-----------9------------7---5-----------------|
D#|--------------------------------------------------------------------|
    1 + 2 + 3 + 4 + 1 + 2 + 3 + 4 + 1 +  2  +  3 + 4 + 1 + 2 + 3 + 4 +

Tabbed by Dave Vucko

            
            
Suggest correction
Creating personal tab
Creating personal tab
You can edit any tab online and save it as your Personal.

You can edit, replace or remove any tab part or add personal notes – all changes will be seen only by you.

Personal tabs can be accessed anytime from any device, even offline.
Learn more »
Give kudos to tab author, rate the tab!
1 2 3 4 5
comments
print report bad tab
guest
You may want to rate the tab now too:
select rating
Wanna post a correction for this tab? Suggest correction