Oops, an error
Loading. Please wait.

Rock-A-By My Baby tab

676 views 12 this week
2 commentsread comments
1 2 3 4 5
2 more votes to show rating
add to favorites
×
Save as Personal and add changes to this tab that will be seen only by you. Learn more ›
×
You can save this tab as Personal to edit and correct it or add notes. All changes will be seen only by you. Learn more »
launch autoscroll
font size
0
reset
how to read this tab
guitar tuner
edit
Autoscroll
slow
fast
+/-
esc
set tempo
stop
Author
About this tab version
This tab only contains chord shapes by tablature without specific finger picking as it is easy to hear from the song. Was this info helpful? Yes No
************************************
Hi there! Hope transitioning & timing between the chords are clear to everybody, but I 
think you'll be successful by listening carefully to the song and looking at these tabs.
I didn't notate the chord-names, but please send a comment if you want to know them.
Also comment if you want to share improvements 
Have fun! 頑張ってください!
************************************


[Intro]
     
e|---7---6---7---11--7---------------------------------------------------------|
B|---8---7---5---9---4---9---7---7---7-----------------------------------------|
G|---7---6---4---9---4---7---6---4---8-----------------------------------------|
D|-----------------------9---8---6---8-----------------------------------------|
A|---7---6---4---9-------7---6---4---------------------------------------------|
E|-------------------7---------------7-----------------------------------------|
 

[Verse 1]

e|---------------4-------4-----------------------------------------------------|
B|---7---6---5---4---5---4-----------------------------------------------------|
G|---8---7---6---5---6---5-----------------------------------------------------|
D|---8---6---6---6---6---6-----------------------------------------------------|
A|-----------------------------------------------------------------------------|
E|---7---7---5-------5---------------------------------------------------------|

e|-----------------------------------------------------------------------------|
B|---7---9---7---7-------------------------------------------------------------|
G|---7---7---7---8-------------------------------------------------------------|
D|---9---9---7---8-------------------------------------------------------------|
A|---7---7---------------------------------------------------------------------|
E|-----------7---7-------------------------------------------------------------|


[Chorus]

e|-------7---------------------------------------------------------------------|
B|---9---7---9---10--7---9---5---5-----------6---7-----------------------------|
G|---7---7---9---9---7---7---6---6---8---9---5---6-----------------------------|
D|---9-------9---11--7---7---6---5---7---8-------------------------------------|
A|---7-----------9---------------------------5---6-----------------------------|
E|-------7---9-------7---7---5---6---7---8-------------------------------------|


[Finger-picking Melody]

e|---7---5---------------------------------------------------------------------|
B|---8---8---7---7---5---5---7-------------------------------------------------|
G|---7---6---6---7---4---4---8-------------------------------------------------|
D|-----------7---5---5---5---8-------------------------------------------------|
A|---7---7---5-----------4-----------------------------------------------------|
E|---------------3---3-------7-------------------------------------------------|


[Verse 2] 

(same as verse 1)


[Chorus] 
                                                 
                                                 |(walk up)     |
e|-------7---------------------------------------|--------------|--------------|
B|---9---7---9---10--7---9---5---5---7---9---7---|-------5---6--|--------------|
G|---7---7---9---9---7---7---6---6---8---7---8---|---8---4---5--|--------------|
D|---9-------9---11--7---7---6---5---8---9---8---|---8----------|--------------|
A|---7-----------9-----------------------7-------|-------4---5--|--------------|
E|-------7---9-------7---7---5---6---7-------7---|---7----------|--------------|


[Bridge]
          
e|-----------------------------------------------------------------------------|
B|---7-----------6-------------------------------------------------------------|
G|---6---6---5---5---6---6-----------------------------------------------------|
D|-------5---4---6---6---5-----------------------------------------------------|
A|---6---6-------4-------------------------------------------------------------|
E|-----------4-------6---5-----------------------------------------------------|

e|-------------------6---5---4---11--------------------------------------------|
B|---7-----------6---------------9---------------------------------------------|
G|---6---6---5---5---------------9---------------------------------------------|
D|-------5---4---6-------------------------------------------------------------|
A|---6---6-------4---------------9---------------------------------------------|
E|-----------4-----------------------------------------------------------------|

Last chorus transitions into the bridge/outro from the first chorus version followed 
by an arpeggio on the last chorus-chord.

            
            
Suggest correction
Creating personal tab
Creating personal tab
You can edit any tab online and save it as your Personal.

You can edit, replace or remove any tab part or add personal notes – all changes will be seen only by you.

Personal tabs can be accessed anytime from any device, even offline.
Learn more »
Give kudos to tab author, rate the tab!
1 2 3 4 5
comments
print report bad tab
2 comments total.
0 reply
Husker_Dude 10 Mar 08, 2017 03:48 PM

Thank you dude!

+1 reply
akiraketsu 10 May 18, 2017 03:05 AM

If you have the chord names, may I please have them? :)

guest
You may want to rate the tab now too:
select rating
Wanna post a correction for this tab? Suggest correction