Oops, an error
Loading. Please wait.

French Girls tab

by Harvard
31 views 3 this week
no commentswrite comment
1 2 3 4 5
1 last vote to show rating
add to favorites
×
Save as Personal and add changes to this tab that will be seen only by you. Learn more ›
×
You can save this tab as Personal to edit and correct it or add notes. All changes will be seen only by you. Learn more »
launch autoscroll
font size
0
reset
how to read this tab
guitar tuner
edit
Autoscroll
slow
fast
+/-
esc
set tempo
stop
Harvard plays this song live with a capo on the first fret and half-step down tuning, which is equivalent
to playing in standard tuning with no capo.

[Intro]
(0:00 - 0:17)
E|---------------------|---------------------|---------------------|---------------------|
B|-0-------------------|-0-------------------|-0-------------------|-0-------------------|
G|-0-------------------|-0-------------------|-0-------------------|-0-------------------|
D|-5-------------------|-5-------------------|-5-------------------|-5-------------------|
A|-7-------------------|-7-------------------|-7-------------------|-7-------------------|
E|---------------------|---------------------|---------------------|---------------------|

[Verse 1]
(0:17 - 0:58)
E|---------------------|---------------------|---------------------|----------------10---|
B|-0---------0---------|-0-------------------|-0---------0---------|-0----10h12----------|
G|-0---------0---------|-0-------------------|-0---------0---------|-0-------------------|
D|-5---------7---------|-9-------------------|-5---------7---------|-9-------------------|
A|-7---------9---------|-10------------------|-7---------9---------|-10------------------|
E|---------------------|---------------------|---------------------|---------------------|

E|---------------------|---------------------|---------------------|---------------------|
B|-0---------0---------|-0-------------------|-0---------0---------|-0-------------------|
G|-0---------0---------|-0-------------------|-0---------0---------|-0-------------------|
D|-5---------7---------|-9-------------------|-5---------7---------|-9-------------------|
A|-7---------9---------|-10------------------|-7---------9---------|-10------------------|
E|---------------------|---------------------|---------------------|---------------------|

E|---------------------|------10---10/12-----|-10---10/12\10-------|---------------------|
B|-0---------0---------|-0----10---10/12-----|-10---10/12\10-------|-0---------0---------|
G|-0---------0---------|-0-------------------|---------------------|-0---------0---------|
D|-5---------7---------|-9-------------------|---------------------|-5---------7---------|
A|-7---------9---------|-10------------------|---------------------|-7---------9---------|
E|---------------------|---------------------|---------------------|---------------------|

[Chorus]
(0:58 - 1:34)
E|----------------10---|---------------------|-----------7+--------|---------------------|
B|-0----10h12----------|-0---------0---------|-0---------7+--------|-0-------------------|
G|-0-------------------|-0---------0---------|-0---------7+--------|-0-------------------|
D|-9-------------------|-5---------7---------|-9-------------------|-10------------------|
A|-10------------------|-7---------9---------|-10------------------|-12------------------|
E|---------------------|---------------------|---------------------|---------------------|

E|---------------------|---------------------------------|---------------------|---------------------|
B|-0----10b12r10-------|-10b12r10--8---8h10p8------------|-0-------------------|-0-------------------|
G|-0-------------------|-------------------------9-------|-0-------------------|-0-------------------|
D|-5-------------------|---------------------------------|-10------------------|-5-------------------|
A|-7-------------------|---------------------------------|-12------------------|-7-------------------|
E|---------------------|---------------------------------|---------------------|---------------------|

E|---------------------|-2-------------------|---------------------------------|---------------------|
B|-0-------------------|-3----10b12r10-------|-10b12r10--8---8h10p8------------|-0-------------------|
G|-0-------------------|-4-------------------|-------------------------9-------|-0-------------------|
D|-10------------------|-4-------------------|---------------------------------|-10------------------|
A|-12------------------|-2-------------------|---------------------------------|-12------------------|
E|---------------------|---------------------|---------------------------------|---------------------|

[Verse 2]
(1:34 - 2:16)
E|---------------------|---------------------|---------------------|---------------------|
B|-0-------------------|---------------------|---------------------|---------------------|
G|-0-------------------|---------------------|---------------------|---------------------|
D|-5---------4----0----|-2-------------------|-5---------4----0----|-2-------------------|
A|-7---------5----2----|-3-------------------|-7---------5----2----|-3-------------------|
E|---------------------|---------------------|---------------------|---------------------|

E|---------------------|---------------------------------|---------------------------------|
B|---------------------|-8---8h10--8-------10b12---------|-8h10p8--------------------------|
G|---------------------|-9---9-9---9---------------------|-----------9---------------------|
D|---------------------|---------------------------------|---------------------------------|
A|---------------------|---------------------------------|---------------------------------|
E|---------------------|---------------------------------|---------------------------------|

[Chorus]
(2:16 - 2:52)
E|---------------------------------|---------------------|---------------------|-----------------------------|
B|---------------------------------|-0-------------------|-0----10b12r10-------|-10b12r10--8---8h10p8--------|
G|-14/16--12--14-------------------|-0-------------------|-0-------------------|-------------------------9---|
D|-----------------12--14----------|-10------------------|-5-------------------|-----------------------------|
A|-------------------------12------|-12------------------|-7-------------------|-----------------------------|
E|---------------------------------|---------------------|---------------------|-----------------------------|

E|---------------------|---------------------|---------------------|-2-------------------|
B|-0-------------------|-0-------------------|-0-------------------|-3----10b12r10-------|
G|-0-------------------|-0-------------------|-0-------------------|-4-------------------|
D|-10------------------|-5-------------------|-10------------------|-4-------------------|
A|-12------------------|-7-------------------|-12------------------|-2-------------------|
E|---------------------|---------------------|---------------------|---------------------|

E|---------------------------------|---------------------|---------------------|---------------------|
B|-10b12r10--8---8h10p8------------|-0-------------------|-0-------------------|-----------3---------|
G|-------------------------9-------|-0-------------------|-0-------------------|---------------------|
D|---------------------------------|-10------------------|-5---------4----0----|-2-------------------|
A|---------------------------------|-12------------------|-7---------5----2----|-3-------------------|
E|---------------------------------|---------------------|---------------------|---------------------|

[Transition]
(2:52 - 3:11)
E|----------------12---|------15-------------|---------------------|----------------12---|
B|-12---15-------------|----------------15---|-----------15/17-----|-12---15-------------|
G|---------------------|---------------------|---------------------|---------------------|
D|---------------------|---------------------|---------------------|---------------------|
A|---------------------|---------------------|---------------------|---------------------|
E|---------------------|---------------------|---------------------|---------------------|

E|------15--------17---|-----------17\15-----|----------------12---|------15-------------|
B|---------------------|---------------------|-12---15-------------|----------------15---|
G|---------------------|---------------------|---------------------|---------------------|
D|---------------------|---------------------|---------------------|---------------------|
A|---------------------|---------------------|---------------------|---------------------|
E|---------------------|---------------------|---------------------|---------------------|

[Verse 3]
(3:11 - 4:26)
E|---------------------|---------------------|---------------------|---------------------|
B|-----------15/17-----|---------------------|---------------------|---------------------|
G|---------------------|---------------------|------7--------------|---------------------|
D|---------------------|----------------5----|------5----9----7----|------9--------------|
A|---------------------|-5/7-----------------|-7----7--------------|---------------------|
E|---------------------|---------------------|----------------7----|---------------------|

E|---------------------|---------------------|---------------------|---------------------|
B|---------------------|---------------------|---------------------|---------------------|
G|---------------------|------7--------------|---------------------|---------------------|
D|----------------5----|------5----9----7----|------9--------------|-9-------------------|
A|-5/7-----------------|-7----7--------------|---------------------|---------------------|
E|---------------------|----------------7----|---------------------|-8-------------------|

E|---------------------|---------------------|---------------------|---------------------|
B|---------------------|---------------------|---------------------|-8----8----8----8----|
G|---------------------|-----------7---------|-----------4---------|-7----7----7----7----|
D|-9-------------------|-9-------------------|-5---------5---------|---------------------|
A|---------------------|---------------------|-----------6---------|-7----7----7----7----|
E|-7-------------------|-8---------7---------|---------------------|---------------------|

E|---------------------|---------------------|---------------------|---------------------|
B|-8----8----8----8----|---------------------|---------------------|-8----8----8----8----|
G|-7----7----7----7----|---------------------|---------------------|-7----7----7----7----|
D|---------------------|-7----7----7----7----|-9----9----9----9----|---------------------|
A|-7----7----7----7----|-7----7----7----7----|-9----9----9----9----|-7----7----7----7----|
E|---------------------|-5----5----5----5----|-7----7----7----7----|---------------------|

E|---------------------|---------------------|---------------------|---------------------------------|
B|-8----8----8----8----|---------------------|---------------------|-------------12------------------|
G|-7----7----7----7----|---------------------|---------------------|---------------------12----------|
D|---------------------|-7----7----7----7----|-9----9----9----9----|---------------------------------|
A|-7----7----7----7----|-7----7----7----7----|-9----9----9----9----|-10h12p10------------------------|
E|---------------------|-5----5----5----5----|-7----7----7----7----|---------------------------------|

E|---------------------------------|---------------------------------|---------------------------------|
B|-------------12------------------|---------------------------------|-------------12------------------|
G|---------------------12------12--|-11--------------14--------------|---------------------12----------|
D|---------------------------------|---------------------------------|---------------------------------|
A|-10h12p10------------------------|---------------------------------|-10h12p10------------------------|
E|---------------------------------|---------------------------------|---------------------------------|

E|---------------------------------|---------------------------------|-12------------------------------|
B|-------------12------------------|---------------------------------|---------10------12--------------|
G|---------------------12------12--|-11--------------14--------------|-------------------------11------|
D|---------------------------------|---------------------------------|---------------------------------|
A|-10h12p10------------------------|---------------------------------|---------------------------------|
E|---------------------------------|---------------------------------|---------------------------------|

E|---------12----------------------|-----------------12--------------|---------------------------------|
B|-----------------10------12------|-------------------------10------|-12------------------------------|
G|-12------------------------------|-11------12----------------------|---------11------12--------------|
D|---------------------------------|---------------------------------|-------------------------12--14--|
A|---------------------------------|---------------------------------|---------------------------------|
E|---------------------------------|---------------------------------|---------------------------------|

[Outro]
(4:26 - 5:05)
E|---------------------|---------------------|---------------------|---------------------|
B|---------------------|-0-------------------|---------------------|---------------------|
G|---------------------|-0-------------------|----------------7----|---------------------|
D|---------------------|-5---------4----7----|------9--------------|------9--------------|
A|------12---14--------|-7-------------------|---------------------|---------------------|
E|---------------------|---------------------|---------------------|---------------------|

E|---------------------|
B|---------------------|
G|---------------------|
D|-9-------------------|
A|---------------------|
E|---------------------|




************************************

| h  Hammer-on
| /  Slide up
| \  Slide down
| p  Pull-off
| r  Release
| b  Bend

************************************
Suggest correction
Creating personal tab
Creating personal tab
You can edit any tab online and save it as your Personal.

You can edit, replace or remove any tab part or add personal notes – all changes will be seen only by you.

Personal tabs can be accessed anytime from any device, even offline.
Learn more »
Give kudos to tab author, rate the tab!
1 2 3 4 5
comments
print report bad tab
guest
You may want to rate the tab now too:
select rating
Wanna post a correction for this tab? Suggest correction