Oops, an error
Loading. Please wait.

What We Had tab

by Harvard
343 views 1 this week
no commentswrite comment
1 2 3 4 5
2 more votes to show rating
add to favorites
×
Save as Personal and add changes to this tab that will be seen only by you. Learn more ›
×
You can save this tab as Personal to edit and correct it or add notes. All changes will be seen only by you. Learn more »
launch autoscroll
font size
0
reset
how to read this tab
guitar tuner
edit
Autoscroll
slow
fast
+/-
esc
set tempo
stop
Half-step down tuning. Capo on the 4th fret. All notes with respect to capo.

These are the chords used. Listen to the song for the rhythm, since it changes slightly.

This is the start of the song, which actually comes at the end of "The Earth", the song before "What We Had".

Eb|--2--5--7--10--5--------5--------
Bb|--0------------0--------0--------
Gb|--0------------4--------4--------
Db|---------------5--------5--------
Ab|---------------------------------
Eb|---------------------------------


Eb|--3--------0--------0--------0--------0--------
Bb|--0--------0-----------0--------0--------0-----
Gb|--0--------0--------------0--------0--------0--
Db|-----------------------------------------------
Ab|--3--------------------------------------------
Eb|-----------------------------------------------


Where "What We Had" starts:

Eb|--------------------0--
Bb|--------------------0--
Gb|--0--------0--------0--
Db|--5--------4--------2--
Ab|--7--------5--------2--
Eb|--------------------0--

When he sings "It turns me on...", it changes to this:

Eb|-----------------------
Bb|-----------------------
Gb|--0--------0--------0--
Db|--2--------4--------5--
Ab|--3--------5--------7--
Eb|-----------------------

At one point during this part, he plays this instead of the chord:

Eb|--------------------
Bb|--------------------
Gb|--------------------
Db|-----5--7--9--7--5--
Ab|--7-----------------
Eb|--------------------

"I am your star...":

Eb|-----------------------------------------
Bb|-----------------------------------0-----
Gb|--------------------------------------0--
Db|--5--4-----4--2-----2--4--5--7-----------
Ab|--7--5-----5--3-----3--5--7--9-----------
Eb|-----------------------------------------

Ending to this part:

Eb|--------------------0--
Bb|--------------------0--
Gb|--------------------0--
Db|--5--4-----4--2-----2--
Ab|--7--5-----5--3-----2--
Eb|--------------------0--


            
            
Suggest correction
Creating personal tab
Creating personal tab
You can edit any tab online and save it as your Personal.

You can edit, replace or remove any tab part or add personal notes – all changes will be seen only by you.

Personal tabs can be accessed anytime from any device, even offline.
Learn more »
Give kudos to tab author, rate the tab!
1 2 3 4 5
comments
print report bad tab
guest
You may want to rate the tab now too:
select rating
Wanna post a correction for this tab? Suggest correction