Oops, an error
Loading. Please wait.

Flagpole Sitta Bass Tab

version 2
version 2

Whole song

Interactive

17,419 views 21 this week
2 commentsread comments
1 2 3 4 5
x 25
add to favorites
launch autoscroll
font size
0
reset
guitar tuner
Autoscroll
slow
fast
+/-
esc
set tempo
stop
Help us to improve Ultimate-Guitar.com Take our survey!
×
Author
Difficulty
novice
[Intro]
G|--------------------------------------------------------------|
D|-0-0-0-0-0-0-0-0------------------------------0-0-0-0-0-0-5-4-|
A|----------------3-3-3-3-3-3-3-3-------------------------------|
E|-------------------------------3-3-3-3-3-3-3-3----------------|

[Verse] (x2)
G|---------------------------------------------------------------|
D|-0-0-0-0-0-0-0-0-------------------------------0-0-0-0-0-0-0-0-|
A|----------------0-0-0-0-0-0-0-0-3-3-3-3-3-3-3-3----------------|
E|---------------------------------------------------------------|

[Chorus] (x2)
G|---------------------------------------------------------------|
D|-0-0-0-0-0-0-0-0-2-2-2-2-2-2-2-2---------------0-0-0-0-0-0-0-0-|
A|--------------------------------3-3-3-3-3-3-3-3----------------|
E|---------------------------------------------------------------|

[Verse] (x2)
G|---------------------------------------------------------------|
D|-0-0-0-0-0-0-0-0-------------------------------0-0-0-0-0-0-0-0-|
A|----------------0-0-0-0-0-0-0-0-3-3-3-3-3-3-3-3----------------|
E|---------------------------------------------------------------|

[Chorus] (x2)
G|---------------------------------------------------------------|
D|-0-0-0-0-0-0-0-0-2-2-2-2-2-2-2-2---------------0-0-0-0-0-0-0-0-|
A|--------------------------------3-3-3-3-3-3-3-3----------------|
E|---------------------------------------------------------------|

[Bridge]
  I...                    Rage...                Pierce my tounge...
G|----------------------------------------------------------------|
D|------------------------------------------------0-0-0-0-0-0-0-0-|
A|----------------------------------------------------------------|
E|-5-5-5-5-5-5-5-5-3-3-3-3-3-3-3-3-1-1-1-1-1-1-1-1----------------|

   Feels fine...                    Wanna...       Killed my mind...
G|-----------------------------------------------------------------|
D|-----------------------------------------------------------------|
A|-----------------------------------------------------------------|
E|-5-5-5-5-5-5-5-5-3-3-3-3-3-3-3-3-1-1-1-1-1-1-1-1-3-3-3-3-3-3-3-3-|

G|-------|
D|-0(x32)|
A|-------|
E|-------|

[Verse] (x2)
G|---------------------------------------------------------------|
D|-0-0-0-0-0-0-0-0-------------------------------0-0-0-0-0-0-0-0-|
A|----------------0-0-0-0-0-0-0-0-3-3-3-3-3-3-3-3----------------|
E|---------------------------------------------------------------|

[Chorus] (x2)
G|---------------------------------------------------------------|
D|-0-0-0-0-0-0-0-0-2-2-2-2-2-2-2-2---------------0-0-0-0-0-0-0-0-|
A|--------------------------------3-3-3-3-3-3-3-3----------------|
E|---------------------------------------------------------------|

[Outro]
G|-------|
D|-0(x32)|
A|-------|
E|-------|
Suggest correction
comments
print report bad tab
2 comments total.
0 reply
Dakaroni 10 Sep 24, 2008 04:52 PM

Good job! Only the end of the intro is the end of the verse as well

+5 reply
B33J 52 Dec 06, 2011 11:12 AM

This only follows the root notes and doesn't include the finer note changes throughout the song.

guest
You may want to rate the tab now too:
select rating
Wanna post a correction for this tab? Suggest correction