Oops, an error
Loading. Please wait.

Flagpole Sitta Tab

version 2
version 2

Whole song

Interactive

47,272 views 81 this week
1 commentread comment
1 2 3 4 5
accurate
x 24
add to favorites
launch autoscroll
font size
0
reset
how to read this tab
guitar tuner
Autoscroll
slow
fast
+/-
esc
set tempo
stop
Help us to improve Ultimate-Guitar.com Take our survey!
×
Author
Guitar: Jeff Lin
Tuning: Standard

Intro:

1st Guitar
e-------------------------------------------------------------------------|           
B-------------------------------------------------------------------------|           
G-------------------------------------------------------------------------|          
D--0-00—-2-22--4-44--7-77--5-55--4-44—-2-22—-0-00-------------------------|           
A--------------------------------------------------3-3h7-7--3-3h7-7-------|           
E-------------------------------------------------------------------------|           

e-----------------|
B-----------------|
G-----------------|
D—----------------|
A—-5-5-5-5-5-5-5--|
E-----------------|

2nd Guitar                      
e-------------------------------------------------------------------------|              
B-------------------------------------------------------------------------|             
G--7-777-777-777-77--5-555-555-555-55--------------------7-777-777-777-7-7|
D—-7-777-777-777-77—-5-555-555-555-55—-5-555-555-555-55--7-777-777-777-7-7| 
A--5-555-555-555-55—-3-333-333-333-33—-5-555-555-555-55—-5-555-555-555-5-5|              
E--------------------------------------3-333-333-333-33-------------------|

Verse:
only Bass and Keyboard/Piano

Chorus:
"Fine, I´m not sick…"
e------------------------------------------|              
B------------------------------------------|             
G--7-------9-------5-------9-------7-------|
D—-7-(8x)--9-(8x)—-5-(4x)—-9-(4x)—-7-(8x)--| 
A—-5-------7-------3-------7-------5-------|              
E------------------------------------------|

2nd  Verse:
only Bass and Keyboard/Piano

2nd Chorus
e------------------------------------------|              
B------------------------------------------|             
G--7-------9-------5-------9-------7-------| 
D—-7-(8x)--9-(8x)—-5-(4x)—-9-(4x)—-7-(8x)--|    (2x)
A—-5-------7-------3-------7-------5-------|              
E------------------------------------------|

Break:
e------------------------------------------------------------------------|
B------------------------------------------------------------------------|
G------------------------------------------------------------------------|      
D------------------------------------------------------------------------|
A----------------------------------8-8-8-8-8-8-8-8-5-5-5-5-5-5-5-5h10h12-|
E—-5-5-5-5-5-5-5-5-3-3-3-3-3-3-3-3---------------------------------------|

e------------------------------------------------------------------------|
B------------------------------------------------------------------------|
G------------------------------------------------------------------------|
D------------------------------------------------------------------------|
A—12-12-12-12-12-12-12-10-10-10-10-10-10-10-10h12-8-8-8-8-8-8-8-8-10-10--|
E------------------------------------------------------------------------|

e------------------------------------------------------------------------|
B------------------------------------------------------------------------|
G----- ------------------------------------------------------------------|   
D----------------------------------------------------7-7-7-7-7-7-7-7-7-7-|
A--10-10-10-10-10-10-5-5-5-5-5-5-5-5-5-5-5-5-5-5-5-5-5-5-5-5-5-5-5-5-5-5-|
E------------------------------------------------------------------------|

e-----------------------------------------------------------------------|
B-----------------------------------------------------------------------|
G—----------------7-777-777-777-77--------------------5-555-555-555-55--|
D--7-7-7-7-7-7----7-777-777-777-77--7-777-777-777-77--5-555-555-555-55--|
A--5-5-5-5-5-5--/-5-555-555-555-55--7-777-777-777-77--3-333-333-333-33--|
E-----------------------------------5-555-555-555-55--------------------|

e-------------------------------------------------------------------------|
B-------------------------------------------------------------------------|
G--7-777-777-777-77--7-777-777-777-77--------------------5-555-555-555-55-|
D--7-777-777-777-77--7-777-777-777-77--7-777-777-777-77--5-555-555-555-55-|
A--5-555-555-555-55--5-555-555-555-55--7-777-777-777-77--3-333-333-333-33-|
E--------------------------------------5-555-555-555-55-------------------|

e--------------------|
B--------------------|
G--7-777-777-777-77--|
D--7-777-777-777-77--|
A--5-555-555-555-55--|
E--------------------|

3rd Chorus
e------------------------------------------|              
B------------------------------------------|             
G--7-------9-------5-------9-------7-------| 
D—-7-(8x)--9-(8x)—-5-(4x)—-9-(4x)—-7-(8x)--|    (2x)
A—-5-------7-------3-------7-------5-------|              
E------------------------------------------|

End
e-------------------------------------------------------------------------|
B-------------------------------------------------------------------------|
G-5h7-7-7-7-7-7-7-7-5h7-7-7-7-7-7-7-7-5h7-7-7-7-7-7-7-7-5h7-7-7-7-7-7-7-7-|
D-x-x-x-x-x-x-x-x-x-x-x-x-x-x-x-x-x-x-x-x-x-x-x-x-x-x-x-x-x-x-x-x-x-x-x-x-|
A—3h5-5-5-5-5-5-5-5-3h5-5-5-5-5-5-5-5-3h5-5-5-5-5-5-5-5-3h5-5-5-5-5-5-5-5-|
E-------------------------------------------------------------------------|

e--------|
B--------|
G—-5—-7--|
D—-x—-7--|
A—-3—-5--|
E--------|


Please rate the tab!
Zach182



Suggest correction
What's this?
You can suggest a correction to this tab. Community and Mods will review your correction and vote to approve or reject it.
comments
print report bad tab
1 comment total.
0 reply
jiligier 380 wrote on January 4 2013, 01:12 am

the intro should be in octaves like:


e-------------------------------------------------------------------------|
B-------------------------------------------------------------------------|
G---7-----9----11-----14-----12-----11-----9-----7------------------------|
D---x-----x-----x------x------x------x-----x-----x------------------------|
A---5-----7-----9-----12-----10------9-----7-----5------------------------|
E-------------------------------------------------------------------------|

but other than that, it's a great tab

guest
You may want to rate the tab now too:
select rating
Please do not post tabs as comments. Select "correction" instead!