Oops, an error
Loading. Please wait.

The Ballad Of The Tragic Hero Bass Tab

114 views 1 this week
no commentswrite comment
1 2 3 4 5
please rate
add to favorites
launch autoscroll
font size
0
reset
guitar tuner
Autoscroll
slow
fast
+/-
esc
set tempo
stop
Help us to improve Ultimate-Guitar.com Take our survey!
×
Author
Difficulty
intermediate
-------------------------------------------------------------------------------
          THE BALLAD OF THE TRAGIC HERO (PITY AND FEAR - Harvey Danger
-------------------------------------------------------------------------------
Tabbed by: Ben Potts
E-mail: backseatben@hotmail.com

I only realised how awesome this bassline was about a week ago and thought
I NEED TO TAB THIS OUT AS SOON AS POSSIBLE!! So here it is :) I haven't
labelled any of the bars but all the parts of the song are here. Some of the
end may or may not be slightly incorrect, but I don't think it would make any
kind of difference which way you played it as the bass is near impossible to
hear on that part.

Anyways, enjoy!

G------------------------------------------------|
D---------4-7------7-4---------------------4-7---|
A-------7--------------7-5-5---7--7-5-5--7-----7-|
E-5-5---------5-5--------------------------------|

G------------------------------------------------|
D---------4-7------7-4---7-----------------4--7\-|
A-------7--------------7---5-5---7--7-5-5--------|
E-5-5---------5-5--------------------------------|

G------------------------------------------------|
D---------4-7------7h-4h-4\----------------/4-/7-|
A-------7-------------------5-5---7--7-5-5-------|
E-5-5---------5-5--------------------------------|

G-----------------------------------------------|
D---------4-7------98----7----------------------|
A-------7------------9-7---5-5---7--7-5-5--7--7-|
E-5-5---------5-5-------------------------------|

G------------------------------------------------|
D---------4-7------------------------------------|
A-------7---------/9-/12-5-5---7--7-5-5--5--7/-9-|
E-5-5---------5-5--------------------------------|

G-----------------------------------------------|
D---------4-7--------7--------------------------|
A-------7---------/9---7---5-5---7--7-5-5--7777-|
E-5-5---------5-5--------5----------------------|

G-------------------------6--------------7--6-|
D----------------------7-----7-6-7----7-------|
A-99999999-77777777-55-------------55---------|
E---------------------------------------------|

G----------------9-----------6-------------77-66-|
D-------------9-----------7----7-6-7----77-------|
A-99999999-77-------7--55------------55----------|
E------------------------------------------------|

G------------------------------------------------|
D------------------------------------------------|
A-------------2-4-2------------------2-3p--2---5-|
E-5---------5-------5-0-2-----5-2--5---------5---|

G--------------------------------------|
D--------------------------------------|
A-----7-5---7-5--7----------------4--7-|
E--------------------5-------5-7-------|

G--------------------------------|
D--------------------------------|
A--------------------------------|
E-5---5---5---5---7---7---7---7--|

G-----------------------------------|
D-----------------------------------|
A--5---5---5---555------------------|
E-------------------5---5---5---55--|

G-----------------------------------|
D-----------------------------------|
A-----------------------------------|
E-5---5---5---555--7---7---7---777--|

G------------------------------------|
D-----------------------------4-6-7--|
A-5---5---5---555-------4-5-7--------|
E------------------5-7---------------|

G----------------------------------|
D----------------------------------|
A----------------------------------|
E-5555555555555555-7777777777777777

G-----------------------------------|
D-----------------------------------|
A-5555555555555555------------------|
E------------------5555555555555555-|

G----------------------------------|
D----------------------------------|
A----------------------------------|
E-5555555555555555-7777777777777777

G------------------|
D------------------|
A-5555555555555555-
E------------------

G-------------------------|
D-----------------------7-|
A-9-7----------7----7-9---|
E-----7P--5--5----5-------|

G-------------------------6--------------7--6-|
D----------------------7-----7-6-7----7-------|
A-------------------55-------------55---------|
E-22222222-00000000---------------------------|

G----------------9------------6-------------7--6-|
D-------------99---9-------7-----7-6-7----7------|
A----------77--------7--55-------------55--------|
E-22222222---------------------------------------|

G-----------------------------------------------|
D-----------------------------------------------|
A-----------------5-----------------------------|
E-5-------------------------------5-------------|

G-----------------------------------------------|
D-----------------------------------------------|
A-5-------------------------------5-------------|
E-----------------5-----------------------------|

G-----------------|
D-----------4-6-7-|
A-----4-5-7-------|
E-5-7-------------|

G-----------------------------------|
D-----------------------------------|
A------------------5555555555555555-|
E-5555555555555555------------------|

G-----------------------------------|
D-----------------------------------|
A------------------5555555555555555-|
E-5555555555555555------------------|

G-----------------------------------|
D-----------------------------------|
A------------------5555555555555555-|
E-5555555555555555------------------|

G--------------------------------------------------|
D--------------------------------------------------|
A------------------4-------5555--------55555-------|
E-55557p-5-7p--5-7---55555------7--5-7--------3--2-|

G---------------------------------|
D---------------------------------|
A-9-------7-------5---------------|
E---------------------------------|

G-------------------|
D-------------------|
A-9-------7-------5-|
E-------------------|

| /  slide up
| \  slide down
| h  hammer-on
| p  pull-off
| ~  vibrato
| +  harmonic
| x  Mute note
===============================================================================
Suggest correction
Give kudos to tab author, rate the tab!
1 2 3 4 5
comments
print report bad tab
guest
You may want to rate the tab now too:
select rating
Wanna post a correction for this tab? Suggest correction