Oops, an error
Loading. Please wait.

Why Im Lonely Tab

362 views 1 this week
no commentswrite comment
1 2 3 4 5
please rate
add to favorites
launch autoscroll
font size
0
reset
how to read this tab
guitar tuner
Autoscroll
slow
fast
+/-
esc
set tempo
stop
Help us to improve Ultimate-Guitar.com Take our survey!
×
Author
Difficulty
intermediate
-------------------------------------------------------------------------------
                          WHY I'M LONELY - Harvey Danger
-------------------------------------------------------------------------------
Tabbed by: itsonlycapital
Email: itsonlycapital@gmail.com

Tuning: Standard


Intro/Verse(/bass solo):

     PM_______________________|        PM_________________________|
e|-----------------|-----------------|-----------------|-------------------|
B|-----------------|-----------------|-----------------|-------------------|
G|---8-8-8-3-3-3-5-|-5-5-5-5-5---5---|-8-8-8-8-3-3-3-5-|-5-5-5-5-5---8-----|
D|---9-9-9-4-4-4-6-|-6-6-6-6-6---6---|-9-9-9-9-4-4-4-6-|-6-6-6-6-6---9b10--|
A|---9-9-9-4-4-4-6-|-6-6-6-6-6---6---|-9-9-9-9-4-4-4-6-|-6-6-6-6-6---------|
E|---7-7-7-2-2-2-4-|-4-4-4-4-4-4-4---|-7-7-7-7-2-2-2-4-|-4-4-4-4-4---------|


   PM_________________________|        PM_________________________|
e|-----------------|-----------------|-----------------|-----------------|
B|-----------------|-----------------|-----------------|-----------------|
G|-8-8-8-8-3-3-3-5-|-5-5-5-5-5---5---|-8-8-8-8-3-3-3-5-|-5-5-5-5-5-5---5-|
D|-9-9-9-9-4-4-4-6-|-6-6-6-6-6---6---|-9-9-9-9-4-4-4-6-|-6-6-6-6-6-6---6-|
A|-9-9-9-9-4-4-4-6-|-6-6-6-6-6---6---|-9-9-9-9-4-4-4-6-|-6-6-6-6-6-6---6-|
E|-7-7-7-7-2-2-2-4-|-4-4-4-4-4-4-4---|-7-7-7-7-2-2-2-4-|-4-4-4-4-4-4---4-|

Pre-Chorus

e|-----------------|-----------------|-----------------|-0---------------|
B|-----------------|-----------------|-4---------------|-------0---------|
G|-----------------|-----------------|-4---------------|-----------------|
D|-2---------------|-----------------|-1---------------|-----------------|
A|-2---------------|-----------------|-2---------------|-----------------|
E|-0---------------|-----------------|-2---------------|-----------------|

e|-----------------|-0---------------|-----------------|-----------------|
B|-----------------|-------0---------|-----------------|-----------------|
G|-6---------------|-----------------|-----------------|-----------------|
D|-7---------------|-----------------|-2---------------|-2-2-2-2-2-2-2-2-|
A|-7---------------|-----------------|-2---------------|-2-2-2-2-2-2-2-2-|
E|-5---------------|-----------------|-0---------------|-0-0-0-0-0-0-0-0-|

(Guitar 2 only plays those two open notes the second time around)

Bridge:

Guitar 1
 |
e|-----------------|-----------------|-----------------|-----------------|
B|-----------------|-----------------|-----------------|-----------------|
G|-----------------|---4-4/6-6/8-8---|-------------9---|---8---\2------2-|
D|-----------------|-----------------|-----------------|-----------------|
A|-----------------|-----------------|-----------------|-----------------|
E|-----------------|-----------------|-----------------|-----------------|
 |
Guitar 2
 |
e|-----------------|-----------------|-----------------|-----------------|
B|-----------------|-----------------|-----------------|-----------------|
G|-----------------|---8---8-8-8-8-8-|-----------------|---6---6-6-6-6-6-|
D|-----------------|---9---9-9-9-9-9-|-----------------|---7---7-7-7-7-7-|
A|-7-7-7-6-6-6-----|---9---9-9-9-9-9-|-7-7-7-6-6-6-----|---7---7-7-7-7-7-|
E|-------------7---|---7---7-7-7-7-7-|-------------5---|---5---5-5-5-5-5-|

Guitar 1
 |
e|-----------------|-----------------|-----------------|-----------------|
B|-----------------|-----------------|-----------------|-----------------|
G|-----2/4----4----|-4-----------4---|-4/6---6/8-8---9-|---9--9/11---11--|
D|-----------------|-----------------|-----------------|-----------------|
A|-----------------|-----------------|-----------------|-----------------|
E|-----------------|-----------------|-----------------|-----------------|
 |
Guitar 2
 |
e|-----------------|-----------------|-----------------|-----------------|
B|-----------------|-----------------|-----------------|-----------------|
G|-----------------|---8---8-8-8-8-8-|-----------------|---6---6-6-6-6-6-|
D|-----------------|---9---9-9-9-9-9-|-----------------|---7---7-7-7-7-7-|
A|-7-7-7-6-6-6-----|---9---9-9-9-9-9-|-7-7-7-6-6-6-----|---7---7-7-7-7-7-|
E|-------------7---|---7---7-7-7-7-7-|-------------5---|---5---5-5-5-5-5-|

Guitar 1
 |
e|-----------------|-----------------|-----------------|-----------------|-----|
B|-----------------|-----------------|-----4-----4---4-|-----4-----------|-7---|
G|-11\9--9---8---8\|-6-6---4---4---4-|---4-----4---4---|---4-----4-4-4-4-|-----|
D|-----------------|-----------------|-----------------|-----------------|-----|
A|-----------------|-----------------|-----------------|-----------------|-----|
E|-----------------|-----------------|-----------------|-----------------|-----|
 |
Guitar 2
 |
e|-----------------|-----------------|-----------------|-----------------|
B|-----------------|-----------------|-----------------|-----------------|
G|-----------------|-----------------|---8-8-xx8-8---8-|---8-8-xx8-8-8-8-|
D|-----------------|-----------------|---9-9-xx9-9---9-|---9-9-xx9-9-9-9-|
A|-7-7-7-6-6-6-----|-----------------|---9-9-xx9-9---9-|---9-9-xx9-9-9-9-|
E|-------------7---|---7-7---7-5-4---|---7-7-xx7-7---7-|---7-7-xx7-7-7-7-|

Outro:

e|-----------------|-----------------|-----------------|-----------------|
B|-----------------|-----------------|-----------------|-----------------|
G|---8-8-xx3-3-----|-----5---5-5---5-|---8-8-xx3-3-----|-----5---5-5---5-|
D|---9-9-xx4-4-x---|---6-6---6-6---6-|---9-9-xx4-4-x---|---6-6---6-6---6-|
A|---9-9-xx4-4-x-6-|---6-6---6-6---6-|---9-9-xx4-4-x-6-|---6-6---6-6---6-|
E|---7-7-xx2-2-x-4-|---4-4---4-4---4-|---7-7-xx2-2-x-4-|---4-4---4-4---4-|

e|------------------|
B|------------------|
G|---8-8-xx3-3-x-5\-|
D|---9-9-xx4-4-x-6\-|
A|---9-9-xx4-4-x-6\-|
E|---7-7-xx2-2-x-4\-|


| /  slide up
| \  slide down
| h  hammer-on
| p  pull-off
| ~  vibrato
| +  harmonic
| x  Mute note
===============================================================================
Suggest correction new What's this?
You can suggest a correction to this tab. Community and Mods will review your correction and vote to approve or reject it.
comments
We did not receive enough feedback on this tab! Please rate:
print report bad tab
1 2 3 4 5
guest
You may want to rate the tab now too:
select rating
Please do not post tabs as comments. Select "correction" instead!