Oops, an error
Loading. Please wait.

Woolly Muffler bass

13 views 1 this week
no commentswrite comment
1 2 3 4 5
3 more votes to show rating
add to favorites
×
Save as Personal and add changes to this tab that will be seen only by you. Learn more ›
×
You can save this tab as Personal to edit and correct it or add notes. All changes will be seen only by you. Learn more »
launch autoscroll
font size
0
reset
guitar tuner
edit
Autoscroll
slow
fast
+/-
esc
set tempo
stop
About this tab version
There was a request for this, so i guess there was no tabs for this song yet. Was this info helpful? Yes No
[Intro]
G|------------------------------------------------|
D|------------------------------------------------|
A|------------------------------------------------|  (Repeat)
E|5-5-5-5-5-5-5-5-5-5-5-5-1-1-1-1-1-1-1-1-1-1-1-1-|

[Verse]
G|------------------------|
D|------------------------|
A|------------------------|
E|5-5-5-5-5-5-5-5-5-5-5-5-|
All I ever wanted to be

G|------------------------|
D|------------------------|
A|------------------------|
E|1-1-1-1-1-1-1-1-1-1-1-1-|
Was a woolly muffler on your naked neck

G|------------------------|
D|------------------------|
A|------------------------|
E|5-5-5-5-5-5-5-5-5-5-5-5-|
Double-wrap me when it's cold

G|------------------------|
D|------------------------|
A|------------------------|
E|1-1-1-1-1-1-1-1-1-1-1-1-|
But you pulled a little tight just now

G|------------------------|
D|------------------------|
A|------------------------|
E|5-5-5-5-5-5-5-5-5-5-5-5-|
And I'm afraid I feel a choke hold c-c-c-coming on

G|------------------------|
D|------------------------|
A|5-5-5-5-5-5-5-5-5-5-5-5-|
E|------------------------|
Yeah, I'm afraid feel a choke hold coming on

[Verse]
G|------------------------|
D|------------------------|
A|------------------------|
E|5-5-5-5-5-5-5-5-5-5-5-5-|
All I ever thought we might come to was second dates

G|------------------------|
D|------------------------|
A|------------------------|
E|1-1-1-1-1-1-1-1-1-1-1-1-|
And flirting eyebrows

G|------------------------|
D|------------------------|
A|------------------------|
E|5-5-5-5-5-5-5-5-5-5-5-5-|
Or maybe even psychic friends

G|------------------------|
D|------------------------|
A|------------------------|
E|1-1-1-1-1-1-1-1-1-1-1-1-|
And we could share a secret language

G|------------------------|
D|------------------------|
A|------------------------|
E|5-5-5-5-5-5-5-5-5-5-5-5-|
And almost definitely make more of it than it was

G|------------------------------------------------------------|
D|--------------------------0-0-0-0-0-0-0-0-0-0-0-0-0-0-0-0-0-|
A|------------------------------------------------------------|
E|1-1-1-1-1-1-1-1-1-1-1-1-1-----------------------------------|
But everyone around us would know Everyone watching would know

[Chorus]
>TURN DISTORTION PEDAL ON
G|------------------------|
D|------------------------|
A|--------------------5-5-|
E|5-5-5-5-5-5-5-5-5-5-----|
This is not a walk with walking wounded

G|------------------------|
D|------------------------|
A|------------------------|
E|1-1-1-1-1-1-1-1-1-1-1-1-|
Here's the ball, here's the pole,

G|------------------------|
D|------------------------|
A|--------------------5-5-|
E|5-5-5-5-5-5-5-5-5-5-----|
Now where's the tether, where's the tether?

G|------------------------|
D|------------------------|
A|------------------------|
E|1-1-1-1-1-1-1-1-1-1-1-1-|
Hands can grow together

G|------------------------|
D|------------------------|
A|--------------------5-5-|
E|5-5-5-5-5-5-5-5-5-5-----|
If you're not careful or grateful or whatever

G|------------------------|
D|------------------------|
A|------------------------|
E|1-1-1-1-1-1-1-1-1-1-1-1-|
And I never much cared much too much to begin with

[Solo](same as chorus)
G|------------------------------------------------|
D|------------------------------------------------| (repeat)
A|--------------------5-5-------------------------|
E|5-5-5-5-5-5-5-5-5-5-----1-1-1-1-1-1-1-1-1-1-1-1-|
Suggest correction
Creating personal tab
Creating personal tab
You can edit any tab online and save it as your Personal.

You can edit, replace or remove any tab part or add personal notes – all changes will be seen only by you.

Personal tabs can be accessed anytime from any device, even offline.
Learn more »
Give kudos to tab author, rate the tab!
1 2 3 4 5
comments
print report bad tab
guest
You may want to rate the tab now too:
select rating
Wanna post a correction for this tab? Suggest correction