Oops, an error
Loading. Please wait.

Engine Tab

157 views 1 this week
no commentswrite comment
1 2 3 4 5
please rate
add to favorites
launch autoscroll
font size
0
reset
how to read this tab
guitar tuner
Autoscroll
slow
fast
+/-
esc
set tempo
stop
Help us to improve Ultimate-Guitar.com Take our survey!
×
Author
verse 1
G1           
e|----------------3---3---3---3-3-3------------------------------------------|
B|----------------3---3---3---3-3-3------------------------------------------|
G|--------5---5---5---5---5---5-5-5------------------------------------------|
D|--------5---5---5---5---5---5-5-5------------------------------------------|
A|--0-0-0-0-0-0-0-3---3-3-3---3-3-3------------------------------------------|
E|--0-0-0-0-0-0-0-3---3-3-3---3-3-3------------------------------------------|
P.M.  - -   -   -       -

G2  this part comes in the second time verse 1 is played
e|---------------------------------------------------------------------------|
B|---------------------------------------------------------------------------|
G|--9-9-9-9-9-9-9-7-7-7-7-5-5-5-5-5-9-9-9-9-9-9-9-12-12-12-12-12-12-12-12-12-|
D|---------------------------------------------------------------------------|
A|--7-7-7-7-7-7-7-5-5-5-5-3-3-3-3-3-7-7-7-7-7-7-7-10-10-10-10-10-10-10-10-10-|
E|---------------------------------------------------------------------------|

Chorus Both guitars       As Illinois goes rushing by...
e|---------------------------------------------------------------------------|
B|---------------------------------------------------------------------------|
G|------------------------9\7-7-7--------------------------------------------|
D|--8-8-8-8-8-8-0-----------------7------------------------------------------|
A|--8-8-8-8-8-8-0---------7\5-5-5-7------------------------------------------|
E|--8-8-8-8-8-8-0-----------------7------------------------------------------|

Both guitars 
e|---------------------------------------------------------------------------|
B|---------------------------------------------------------------------------|
G|---------------------------------------------------------------------------|
D|------------0-------------------------------0------------------------------|
A|------------0-------------------------------0------------------------------|
E|--8~~-------0-------------------8~~---------0------------------------------|


(Guitar 2 in parentheses)              Last time
e|----------(5)---------------(5)-----|--------------------------------------|
B|-(6)-(6)-------(6)-(6)-(6)-------(6)|--------------------------------------|
G|------------------------------------|--------------------------------------|
D|--8-7-5-8-/10-8-7-5-8-7-5-8-/10-5---|-8-7-5-8-/10-8-7-5-8-7---8-7----------|
A|----------------------------------8-|--------------------------------------|
E|------------------------------------|--------------------------------------|

guitar 2 plays notes in parentheses 2nd and 4th time
e|-------------------------------|-------------------------------------------|
B|-------------------------------|-------------------------------------------|
G|---------------------(3-3-3-3)-|---------------------(3-3-3-3-3-3)---------|
D|----------------------3-3-3-3--|----------------------3-3-3-3-3-3----------|
A|--1-1---1---1-1---1------------|--1-1---1---1-1---1------------------------|
E|--1-1---1---1-1---1------------|--1-1---1---1-1---1------------------------|
P.M.-         -                     -         -

Suggest correction
What's this?
You can suggest a correction to this tab. Community and Mods will review your correction and vote to approve or reject it.
comments
We did not receive enough feedback on this tab! Please rate:
print report bad tab
1 2 3 4 5
guest
You may want to rate the tab now too:
select rating
Please do not post tabs as comments. Select "correction" instead!