Oops, an error
Loading. Please wait.

O Come Emmanuel tab

version 1
version 1

Whole song

12,534 views 9 this week
4 commentsread comments
1 2 3 4 5
2 more votes to show rating
add to favorites
×
Save as Personal and add changes to this tab that will be seen only by you. Learn more ›
×
You can save this tab as Personal to edit and correct it or add notes. All changes will be seen only by you. Learn more »
launch autoscroll
font size
0
reset
how to read this tab
guitar tuner
edit
Autoscroll
slow
fast
+/-
esc
set tempo
stop
Author
Difficulty
Artist: Haste the Day
Song: O' Come Emmanuel
Album: A Santa Cause 2: It's A Punk Rock Christmas #20
Tabber: Russell Stover
Tuning: Standard (E A D G B e)

h - hammer on
/ - slide up

This is an awesome song just in time for the holidays. It's really easy to
play.
I'm sure it this song is up in the 97% correct tally. Listen to the song for rhythm.
I can't really figure out the solo but I have figured out the beginning of it.. If your 
good ear help me out on this one.

Whole Song Finger Picked

Intro x2

e|---------------------------------------------------------------------------|
B|--------0-----------------------------------------0------------------------|
G|------0---0---0------------0---------0----------0---0---0------------------|
D|----0-------0------------0---------0----------0-------0--------------------|
A|--------------------------------------------3------------------------------|
E|-0-----------------0h2---------2/3-----------------------------------------|


e|---------------------------------------------------------------------------|
B|--------0-----------------------------------------0------------------------|
G|------0---0---0------------0---------0----------0---0---0------------------|
D|----0-------0------------0---------0----------0-------0--------------------|
A|--0----------------0h2-----------------------------------------------------|
E|--------------------------------3----------0-------------------------------|


Verse x2
e|---------------------------------------------------------------------------|
B|--------0-----------------------------------------0------------------------|
G|------0---0---0------------0---------0----------0---0---0------------------|
D|----0-------0------------0---------0----------0-------0--------------------|
A|--------------------------------------------3------------------------------|
E|-0-----------------0h2---------2/3-----------------------------------------|

1. O come, O come, Emmanuel
2. That mourns in lonely exile here
3. O come, thou Day-Spring, come and cheer
4. Drive away the shades of night
5. O come, Desire of nations bind
6. Bid envy, strife, and quarrels cease;


Verse (Continued)
e|---------------------------------------------------------------------------|
B|--------0-----------------------------------------0------------------------|
G|------0---0---0------------0---------0----------0---0---0------------------|
D|----0-------0------------0---------0----------0-------0--------------------|
A|--0----------------0h2-----------------------------------------------------|
E|--------------------------------3----------0-------------------------------|

1. And ransom captive Israel
2. Until the son of God appear
3. Our spirits by thine advent here
4. And pierce the clouds and bring us light.
5. All peoples in one heart and mind;

6. Fill all the world with heaven’s peace


Chorus
e|---------------------------------------------------------------------------|
B|---------------------------0-------0------------------------------0--------|
G|--0----------0-----0-----0-------0---0-----------0------0-------0---0---0--|
D|--0--0-----0-----0-----0-------0-------0-------0------0-------0-------0----|
A|-----2---0-----2-------------2---------------0-----------------------------|
E|--------------------0------------------------------3-------0---------------|
Rejoice! Rejoice! Emmanuel, Shall come to thee, O Israel.


Lyrics
O come, O come, Emmanuel
And ransom captive Israel
That mourns in lonely exile here
Until the Son of God appear
Rejoice! Rejoice! Emmanuel
Shall come to thee, O Israel.
O come, Thou Day-Spring, come and cheer
Our spirits by Thine advent here
Drive away the shades of night
And pierce the clouds and bring us light.
Rejoice! Rejoice! Emmanuel
Shall come to thee, O Israel.
O come, Desire of nations bind.
All peoples in one heart and mind;
Bid envy, strife, and quarrels cease;
Fill all the world with heaven’s peace.

Rejoice! Rejoice! Emmanuel
Shall come to thee, O Israel.

[Help Me Out Please]
Solo
e|---------------------------------------------------------------------------|
B|--5/7--7/8--8/10-----------------------------------------------------------|
G|---------------------------------------------------------------------------|
D|---------------------------------------------------------------------------|
A|---------------------------------------------------------------------------|
E|---------------------------------------------------------------------------|

            
            
Suggest correction
Creating personal tab
Creating personal tab
You can edit any tab online and save it as your Personal.

You can edit, replace or remove any tab part or add personal notes – all changes will be seen only by you.

Personal tabs can be accessed anytime from any device, even offline.
Learn more »
Give kudos to tab author, rate the tab!
1 2 3 4 5
comments
print report bad tab
4 comments total. Showing first comments.
0 reply
theevilgenius32 10 Nov 22, 2007 11:57 AM

Alright so this is how it should be played..nice initial job though

e|-----
B|-----0-----0-----
G|-----0-----0-----0 -----0-----0----- 0-----
D|----2-----0-----0-----0-----0-----0-----
A|-----3 -----
E|-0-----0h2-----2/3-----


e|-----
B|-----0----- 0-----
G|-----0-----0-----0-----0-----0----- 0-----
D|----2-----0-----0-----0-----2-----0-----
A|--2--- --0h2-----
E|-----3-----0-----

-1 reply
theevilgenius32 10 Nov 22, 2007 04:36 PM

|-----------------------------------------------
B|----- 0---------0-----
G|-----0---0-- 0-----0 -----0----------
-----
D|----2--0--- 0-----0-----0----0---0-------
A|--- ------------------3--------0-------
E|-0-----
0h2---2/3----------------------------


e|---------------------------------------------------
B|-------0-----
----------------0------
G|-----0----0-----0-----0-----0-----0-----
D|----2---0-----0-----0-----2-----0-----
A|--2----
-----0h2--------------------
E|------------------3-----0---------

Hahaha no Idea what went wrong with the first
post.....but the chord you use is Em not just open

-1 reply
theevilgenius32 10 Nov 22, 2007 04:37 PM

this is freakin ridiculous...so Im not writing it again...just use Em when it has all the open notes and it should work
quite well

guest
You may want to rate the tab now too:
select rating
Wanna post a correction for this tab? Suggest correction