Oops, an error
Loading. Please wait.

Substance solo tab

version 1
version 1

Solo

Whole song

983 views 1 this week
2 commentsread comments
1 2 3 4 5
1 last vote to show rating
add to favorites
×
Save as Personal and add changes to this tab that will be seen only by you. Learn more ›
×
You can save this tab as Personal to edit and correct it or add notes. All changes will be seen only by you. Learn more »
launch autoscroll
font size
0
reset
how to read this tab
guitar tuner
edit
Autoscroll
slow
fast
+/-
esc
set tempo
stop
-------------------------------------------------------------------------------
                             SUBSTANCE - Haste The Day
-------------------------------------------------------------------------------
Tabbed by:
Email:I guess this is the breakdown

Tuning:Drop D

e|---------------------------------------------------------------------------|
B|---------------------------------------------------------------------------|
G|---------------------------------------------------------------------------|
D|---------------------------------------------------------------------------|
A|0-0x0x-1 0x0x-0x0x0x0x0x-1-0x-3--------------------------------------------|
D|0-0x0x-1-0x0x-0x0x0x0x0x-1-0x-3--------------------------------------------|X4 then short pause

e|-------------------------------------------------------7+------------------|
B|-------------------------------------------------7+--7+--7+--7+------------|
G|-----------------------------------------------5+--5+------5+--------------|
D|---------------------------------------------------------------------------|
A|0-0x0x-1 0x0x-0x0x0x0x0x-1-0x-3--------------------------------------------|
E|0-0x0x-1 0x0x-0x0x0x0x0x-1-0x-3--X4 Then This -----------------------------|

            
            
Suggest correction
Creating personal tab
Creating personal tab
You can edit any tab online and save it as your Personal.

You can edit, replace or remove any tab part or add personal notes – all changes will be seen only by you.

Personal tabs can be accessed anytime from any device, even offline.
Learn more »
Give kudos to tab author, rate the tab!
1 2 3 4 5
comments
print report bad tab
2 comments total.
0 reply
AsILayLiving 412 Jul 14, 2006 04:44 PM

Dude next time dont tab 10 seconds of a song....but its cool

0 reply
LDPGuitarist27 750 Sep 07, 2008 03:02 AM

um... what? the breakdown is right but this:
----------7----------
---7----7---7---7----
-5---5--------5---5--

is wrong.
it should be:
--7---------7-----
----7---7-----7---
------5---5-------

guest
Wanna post a correction for this tab? Suggest correction