Oops, an error
Loading. Please wait.

Bringer Of Storms Tab

version 1
version 1

Solo

198 views 3 this week
no commentswrite comment
1 2 3 4 5
please rate
add to favorites
launch autoscroll
font size
0
reset
how to read this tab
guitar tuner
Tab Pro tools
  • play this tab
  • loop segment
  • change instrument
  • show fretboard
  • metronome
×
Best way to learn
"Bringer Of Storms"
Autoscroll
slow
fast
+/-
esc
set tempo
stop
Contributor
Difficulty
intermediate
Hate Eternal - Bringer of storms solo

Tune 1.5 steps down - aka C# tuning

   4:45
|-------------------------------------------------------------------------|
|***-9~~~--9h10--9h10p9p6--9~~~~--10/12gb13--12~~~~-13-13/15-15h17-1515***|
|---/9~~~-(9h10)-9h10p9p7-/9~~~~--10/13gb14--13~~~~-14-14/16-16h17-1616---|
|-------------------------------------------------------------------------|
|---*********THE-NOTES-ON-2ND-STRING-ARE-OVERDUBBED-HARMONY*********------|
|-------------------------------------------------------------------------|

4:52
|----*********THE-NOTES-ON-4TH-STRING-ARE-OVERDUBBED-HARMONY*********-----|
|-------------------------------------------------------------------------|
|--13~~~~-14-13h14p13-10-13~~~~~-13b14r13--/10~~~~~/9~~7~~~~-5-4h5~~------|
|**14~~~~-15-14h15p14-12-14~~~~~-14h15p14--/12~~~~~10~~9~~~~-7-6h7~~******|
|-------------------------------------------------------------------------|
|-------------------------------------------------------------------------|

                  5:00
|-------------------------------------------------------------------------|
|--------------------8h10-8h10-12-12b13~~~~~~~~~~(12h13p12p10)-12~~~~~~---|
|-/10p9~~~~~~~~--9h10-----------------------------------------------------|
|-/10p9~~~~~~~~--THESE-N0TES-PLAYED-VERY----------------------------------|
|----------------FAST-ALMOST-GHOST-NOTES----------------------------------|
|-------------------------------------------------------------------------|

    5:04
|-----(22~~~)------------------------ALL-THESE-NOTES-TREM-PICKED----------|
|--/17-15~~~~-17gb18--t24p-18r17----17h18p15------------------------------|
|-------------HOLD---------RELEASE----------17p16p14----------------------|
|--------------BEND---TAP----BEND-------------------17p16p14--------------|
|--------------------WITH-----------------------------------17p15p14------|
|------------------RIGHT-HAND---------------------------------------------|

|-------------------------------------------------------------------------|
|-------------------------15h17p15------------------15h17h18p17p15--------|
|-----------------14h16h17--------17p16p14--14h16h17----------------------|
|---------14h16h17------------------------17------------------------------|
|-14h15h17----------------------------------------------------------------|
|---ALL---OF---THESE----NOTES--ARE----TRENOLO---PICKED--------------------|

|---------------------------------////24~~~~~~~~~~~~~~~-------------------|
|-------------------15h17h18p17p15---VIBRATO-WITH-------------------------|
|-17p16p14--14h16h17-----------------FLOYD--ROSE--------------------------|
|---------17--------------------------------------------------------------|
|-------------------------------------------------------------------------|
|-THESE--NOTES--TREMOLO--PICKED-------------------------------------------|
comments
We did not receive enough feedback on this tab! Please rate:
print report bad tab
1 2 3 4 5
I want to post or [tab]
guest
You may want to rate the tab now too:
select rating
Please do not post tabs as comments. Select "correction" instead!