Oops, an error
Loading. Please wait.

King Of All Kings Tab

version 1
version 1

Whole song

Interactive

2,352 views 1 this week
no commentswrite comment
1 2 3 4 5
2 more votes to show rating
add to favorites
×
Save as Personal and add changes to this tab that will be seen only by you. Learn more ›
×
You can save this tab as Personal to edit and correct it or add notes. All changes will be seen only by you. Learn more »
save as personal
new!
launch autoscroll
font size
0
reset
how to read this tab
guitar tuner
Autoscroll
slow
fast
+/-
esc
set tempo
stop
Author
Tuning
C# F# B E G# C#
Tuning C# 

[Riff 1]
C#|-----------------------------------------------------------------| 
G#|-----------------------------------------------------------------| 
E |---------------------------------------------------7-8--6\5/6-10-| 
B |---------------------------------------------------6-7--5\4/5-9--| 
F#|----66-----55-------66-5\4--4\3----66-----55-------5-6--4\3/4-8--| 
C#|-55----767----66-55----4\3\-3\2-55----767----66-55---------------| 

                                                           (Last time, don`t play this part.)
C#|-------------------------------------------------------|--------------| 
G#|-------------------------------------------------------|--------------| 
E |-------------------------------------------7-----------|--------------| 
B |-------------------------------------------6-----------|--------------| 
F#|----66-----55-------66-4-3----66-----55----5-------679-|---66-789-----| 
C#|-55----767----66-55----3-2-55----767----66---76567-----|55--------789-| 

[Riff 2]
C#|-----------------------------------------------| 
G#|-----------------------------------------------| 
E |-----------------------------------------------| 
B |-5--8--7--6--9--8-7\6/7-5--8--7-8\7/8-10-6-7---| 
F#|-----------------------------------------------| 
C#|--33-66-55-44-77--5\4/5--33-66--6\5/6-8--4-5-6-| 

C#|------------------------------------------------| 
G#|------------------------------------------------| 
E |------------------------------------------------| 
B |-5--8--7--6--9--8-7\6/7-5--8--7-666--------6655-| 
F#|------------------------------------445544------| 
C#|--33-66-55-44-77--5\4/5--33-66------------------| 

[Riff 3]
C#|-------------------------------------------------------------------| 
G#|-------------------------------------------------------------------| 
E |-------------------------------------------------------------------| 
B |-7777------7766-6666-------6655-7777--------7766-------------------| 
F#|------------------------------------------------------------55-----| 
C#|-----334433----------223322----------334433------3344667766---7766-| 

C#|-----------------------------------------------------------------------| 
G#|-----------------------------------------------------------------------| 
E |-----------------------------------------------------------------------| 
B |-7777------7766-6666-------6655-7777--------7766-----------------------| 
F#|-------------------------------------------------------------55----6666| 
C#|------334433----------223322----------334433------3344667766---7766----| 

[Riff 1] 
C#|-----------------------------------------------------------------| 
G#|-----------------------------------------------------------------| 
E |---------------------------------------------------7-8--6\5/6-10-| 
B |---------------------------------------------------6-7--5\4/5-9--| 
F#|----66-----55-------66-5\4--4\3----66-----55-------5-6--4\3/4-8--| 
C#|-55----767----66-55----4\3\-3\2-55----767----66-55---------------| 

                                                           (Last time, don`t play this part.)
C#|-------------------------------------------------------|--------------| 
G#|-------------------------------------------------------|--------------| 
E |-------------------------------------------7-----------|--------------| 
B |-------------------------------------------6-----------|--------------| 
F#|----66-----55-------66-4-3----66-----55----5-------679-|---66-789-----| 
C#|-55----767----66-55----3-2-55----767----66---76567-----|55--------789-| 

[Riff 2]
C#|-----------------------------------------------| 
G#|-----------------------------------------------| 
E |-----------------------------------------------| 
B |-5--8--7--6--9--8-7\6/7-5--8--7-8\7/8-10-6-7---| 
F#|-----------------------------------------------| 
C#|--33-66-55-44-77--5\4/5--33-66--6\5/6-8--4-5-6-| 

C#|------------------------------------------------| 
G#|------------------------------------------------| 
E |------------------------------------------------| 
B |-5--8--7--6--9--8-7\6/7-5--8--7-666--------6655-| 
F#|------------------------------------445544------| 
C#|--33-66-55-44-77--5\4/5--33-66------------------| 

[Riff 3] 
C#|-------------------------------------------------------------------| 
G#|-------------------------------------------------------------------| 
E |-------------------------------------------------------------------| 
B |-7777------7766-6666-------6655-7777--------7766-------------------| 
F#|------------------------------------------------------------55-----| 
C#|-----334433----------223322----------334433------3344667766---7766-| 

C#|-----------------------------------------------------------------------| 
G#|-----------------------------------------------------------------------| 
E |-----------------------------------------------------------------------| 
B |-7777------7766-6666-------6655-7777--------7766-----------------------| 
F#|-------------------------------------------------------------55----6666| 
C#|------334433----------223322----------334433------3344667766---7766----| 

[Riff 4] 
C#|-----------------------------------------------| 
G#|-----------------------------------------------| 
E |-----------------------------------------------| 
B |-----------------------------------------------| 
F#|------------55----------------------55----6666-| 
C#|-3344667766---7766443344-3344667766---7766-----| 

C#|-----------------------------------------------------| 
G#|-----------------------------------------------------| 
E |-----------------------------------------------------| 
B |-----------------------------------------------------| 
F#|------------55---------------------------------------| 
C#|-3344667766---7766443344-776644-664433-554422-113344-| 

C#|-----------------------------------------------| 
G#|-----------------------------------------------| 
E |-----------------------------------------------| 
B |-----------------------------------------------| 
F#|------------55----------------------55----6666-| 
C#|-3344667766---7766443344-3344667766---7766-----| 

C#|--------------------------------------------------| 
G#|--------------------------------------------------| 
E |--------------------------------------------------| 
B |--------------------------------------------------| 
F#|------------55------------------------------------| 
C#|-3344667766---7766443344-776644-664433-5544223333-| 

[Riff 5] 
(Guitar 1) 
(first time, Guitar one starts on the first bar alone) 
C#|-----------------------------------------------------| 
G#|-----------------------------------------------------| 
E |-----------------------------------------------------| 
B |-777---777---888---888---777---777---7766556655-5544-| 
F#|-----------------------------------------------------| 
C#|-----5-----5-----6-----6-----5-----5-----------------| 

(Guitar 2) 
(those are 10s and 11s not 0s and 1s) 
C#|-------------------------------------------------------------------------| 
G#|-------------------------------------------------------------------------| 
E |-------------------------------------------------------------------------| 
B |-101010---101010---111111---111111---101010---101010---101099889988-8877-| 
F#|-------------------------------------------------------------------------| 
C#|--------8--------8--------9--------9--------8--------8-------------------|


************************************

| /  Slide up
| \  Slide down

************************************
Suggest correction
Give kudos to tab author, rate the tab!
1 2 3 4 5
comments
print report bad tab
guest
You may want to rate the tab now too:
select rating
Wanna post a correction for this tab? Suggest correction