Oops, an error
Loading. Please wait.

Rising Legions Of Black Tab

version 1
version 1

Whole song

138 views 1 this week
no commentswrite comment
1 2 3 4 5
3 more votes to show rating
add to favorites
launch autoscroll
font size
0
reset
how to read this tab
guitar tuner
Autoscroll
slow
fast
+/-
esc
set tempo
stop
Help us to improve Ultimate-Guitar.com Take our survey!
×
Difficulty
Tuning
advanced
C# G# C# F# A# D#
band;hate eternal
album; king of all kings
song; rising legions of black
tuning from low to high;c#,f#,b,e,g#,c#
tabber; ben chaffins
this maybe both guitars combined into one
it was really hard to tell what was going on but this whole tab might
be anywhere from 80-95% correct if you listen really close like i did then
you will probably here the same thing that i did in this song
putting in standard so its easier to read

 main intro play this intro 6 times
e------------------------------------------------------------------|
b------------------------------------------------------------------|
g------------------------------------------------------------------|
d-----------88887777-----------88887777-----------8888777710101010-|
a------------------------------------------------------------------|
e-0000-0000-66665555-0000-0000-66665555-0000-0000-66665555-8-8-8-8-|
  .... ....          .... ....          .... ....

this here below is only played once throughout the whole song
e--------------------|
b--------------------|
g--------------------|
d----------9999-9999-|
a--------------------|
e-66667777-7777-7777-|
  ........

 here on this riff i think one grt is doing the 2's and 3's
 and grt 2 is doing the 4's and 5's
any way play this riff 4 times
e---------------------------------------|
b---------------------------------------|
g---------------------------------------|
d-444444555555-4/5-4-555554444433-4/5-4-|
a---------------------------------------|
e-222222333333-2/3-2--------------2/3-2-|

e------------------------------------------------------------------|
b------------------------------------------------------------------|
g------------------------------------------------------------------|
d-----------88887777-----------88887777-----------8888777710101010-|
a------------------------------------------------------------------|
e-0000-0000-66665555-0000-0000-66665555-0000-0000-66665555-8-8-8-8-|
  .... ....          .... ....          .... ....
 so whats going on here is do the top part then this here below then the top part again 
then the bottom again
e-----------------------------------------------|
b-----------------------------------------------|
g-----------------------------------------------|
d-----------88887777-----------8888777710101010-|
a-----------------------------------------------|
e-0000-0000-66665555-0000-0000-66665555-8-8-8-8-|
  .... ....          .... ....

 this riff here below is played 3 times
e--------------------------------------------------|
b--------------------------------------------------|
g--------------------------------------------------|
d-555554444-4/5-4--------5-4--------4-3--------3---|
a------------------------------------------------2-|
e-----------2/3-2-000000-3-2-000000-2-1-000000-1-0-|
                  ......     ......     ......   .
there is no solo in this song so do the intro again 3 times to end the song
but when ending the song do this power chord here below and let ring

e----
b----
g----
d-8--
a----
e-6--

that is all please enjoy you pure death metal fans
Suggest correction
Give kudos to tab author, rate the tab!
1 2 3 4 5
comments
print report bad tab
guest
You may want to rate the tab now too:
select rating
Wanna post a correction for this tab? Suggest correction