Oops, an error
Loading. Please wait.

The Creed Of Chaotic Divinity Tab

185 views 1 this week
no commentswrite comment
1 2 3 4 5
please rate
add to favorites
launch autoscroll
font size
0
reset
how to read this tab
guitar tuner
Autoscroll
slow
fast
+/-
esc
set tempo
stop
Help us to improve Ultimate-Guitar.com Take our survey!
×
Difficulty
Tuning
advanced
C# G# C# F# A# D#
band;hate eternal
album; conquering the throne
song; the creed of chaotic divinity
tabber;ben chaffins
tuning; from low to high c#,f#,b,e,g#,c#
putting in standard so its easier to read

main intro play this here 4 times
e-------------------------------------------------------------------------|
b-------------------------------------------------------------------------|
g-------------------------------------------------------------------------|
d----------66665555----------555444----------------------5--4--7--6--8--4-|
a-------------------------------------------------------------------------|
e-44443333----------33332222--------22221111444433330000-3--2--5--4--6--2-|
  ........          ........        ....................

e-----------------------------------------------------------------------|
b-----------------------------------------------------------------------|
g-----------------------------------------------------------------------|
d-----5-4-----7-6-----4-3-----5-4---------------------------------------|
a-----------------------------------------------------------------------|
e-0-0-3-2-0-0-5-4-0-0-2-1-0-0-3-2-0-0-33333333222222225555555544444444--|
  . .     . .     . .     . .     . . ................................

e---------------------------------------------------------------------------|
b---------------------------------------------------------------------------|
g---------------------------------------------------------------------------|
d------------------------------5-4--------------------7-6------9-8-5/6------|
a----------3----------3-----------------------------------------------------|
e-11111111-1-11111111-1-111111-3-2-000000333333222222-5-4-0000-7-6-3/4-0000-|
  ........ . ........ . ......     ..................     ....         ....

e------------------------------------------|
b------------------------------------------|
g------------------------------------------|
d----------------------------------9-8/9-8-|  play this here 2 times
a------------------------------------------|
e-22223333222255557777444477775555-7-6/7-6-|
  ................................
then the main intro again 4 times then this here below

e--------------------------------------------------------------------------|
b--------------------------------------------------------------------------|
g--------------------------------------------------------------------------|
d---------------------------------------5-4------7-8------4-3------6-7-6-5-|
a--------------------------------------------------------------------------|
e-33333333222222225555555544444444-0000-3-2-0000-5-6-0000-2-1-0000-4-5-4-3-|
  ................................ ....     ....     ....     ....
e------------------------------|
b------------------------------|
g------------------------------|
d------4-5------7-8-9-8/9-8-0--|
a---------------------------0--|end of song
e-0000-2-3-0000-5-6-7-6/7-6-0--|
  ....     ....             .
Suggest correction
Give kudos to tab author, rate the tab!
1 2 3 4 5
comments
print report bad tab
guest
You may want to rate the tab now too:
select rating
Please do not post tabs as comments. Select "correction" instead!