Oops, an error
Loading. Please wait.

The Plague Of Humanity Tab

188 views 1 this week
no commentswrite comment
1 2 3 4 5
3 more votes to show rating
add to favorites
launch autoscroll
font size
0
reset
how to read this tab
guitar tuner
Autoscroll
slow
fast
+/-
esc
set tempo
stop
Help us to improve Ultimate-Guitar.com Take our survey!
×
Difficulty
Tuning
advanced
C# G# C# F# A# D#
band hate eternal
album i monarch
song the plague of humanity
tuning from low to high c#,f#,b,e,g#,c#
tabber ben chaffins
putting in standard so its easier to read

main intro these are all power chords play this intro 3 times
e--------------------------------------|
b--------------------------------------|
g-10101010999912121212111111118888-----|
d--9-9-9-9888811111111101010107777-----|
a--8-8-8-8777710101010-9-9-9-96666---2-|
e--7-7-7-76666-9-9-9-9-8-8-8-85555---0-|
                                     .

main riff play this 4 times note these are 10's 13's and 12's
e---------------------------------------------------------------------------|
b---------------------------------------------------------------------------|
g---------------------------------------------------------------------------|
d-9999--------101010101313121210--------99999--------9999/6666655555/888888-|
a---------------------------------------------------------------------------|
e------000000--------------------000000-------000000------------------------|
       ......                    ......       ......
riff 2 so to speak play this here below 4 times
e-----------------------------------------------------------------|
b-----------------------------------------------------------------|
g-----------------------------------------------------------------|
d--------9-9-9-10-7--------9-9-9-10-7--------7-7-7-8-5--------6-5-|
a-----------------------------------------------------------------|
e-000000------------000000------------000000-----------000000-4-3-|
  ......            ......            ......           ......

then the main riff again this time play 6 times
e----------------------------------------------------------------------------|
b----------------------------------------------------------------------------|
g----------------------------------------------------------------------------|
d--------9999--------101010101313121210--------99999--------9999/66665555888-|
a----------------------------------------------------------------------------|
e-000000------000000--------------------000000-------000000------------------|
  ......      ......                    ......       ......
then riff 2 again but play 5 times instead of 4
e-----------------------------------------------------------------|
b-----------------------------------------------------------------|
g-----------------------------------------------------------------|
d--------9-9-9-10-7--------9-9-9-10-7--------7-7-7-8-5--------6-5-|
a-----------------------------------------------------------------|
e-000000------------000000------------000000-----------000000-4-3-|
  ......            ......            ......           ......
then play the main riff again but this time play it 3 times
then a solo starts after the main riff again then play the intro again 3 times then 
thats it enjoy this fun little song
Suggest correction
Give kudos to tab author, rate the tab!
1 2 3 4 5
comments
print report bad tab
guest
You may want to rate the tab now too:
select rating
Wanna post a correction for this tab? Suggest correction