Oops, an error
Loading. Please wait.

Two Demons Tab

version 1
version 1

Live

Whole song

136 views 1 this week
no commentswrite comment
1 2 3 4 5
please rate
add to favorites
launch autoscroll
font size
0
reset
how to read this tab
guitar tuner
Autoscroll
slow
fast
+/-
esc
set tempo
stop
Help us to improve Ultimate-Guitar.com Take our survey!
×
Difficulty
Tuning
advanced
C# G# C# F# A# D#
band hate eternal
song two demons yes i saw him play this live
album i,monarch
tabber ben chaffins
tuning from low to high c#,f#,b,e,g#,c#
in standard so its easier to read
                                        12---444444-|
                                        11---333333-|
intro on the intro here play the chords 10---222222-| 0n the 1st 3rd 5th and 7th
time then the bottom on the 2nd 4th 6th and last time
e-----------------------------------------------------------------------|
b-----------------------------------------------------12/9--------13/8--|
g-------12/9-------13/8-------14/7--------------------------------------|
d-----------------------------------12---444444-------10/7--------11/6--|
a-------10/7-------11/6-------12/5--11---333333-------------------------|
e-0-000------0-000------0-000-------10---222222-0-000-------0-000-------|
  . ...      . ...      . ...                   . ...       . ...

intro still continued
e----------------------|
b----------------------|
g----------------------|
d-12---444444/-11--11--|
a-11---333333/-10--10--|
e-10---222222/--9---9--|

riff 1 note those are 11's and 10's
e----------------------------------------------------------------------------|
b----------------------------------------------------------------------------|
g----------------------------------------------------------------------------|
d------------------------------------7---------------------------------------|
a-1111111111117777101010101010666666-6--------------------------101010101010-|
e------------------------------------5-555555222222444444111111--------------|
                                     .              these here are 1's
riff 1 still continued play all of this 2 times
e-----------------------------------------------------------------------|
b-----------------------------------------------------------------------|
g-----------------------------------------------------------------------|
d------------------5--------------------------6//---------------------7-|
a-6666888888555555-4------------------------------11"-7777-10"-666666-6-|
e------------------3-555555222222444444111111-4//---------------------5-|

riff 1 still continued remember play all of this 2 times
e----------------------------------------------|
b----------------------------------------------|
g----------------------------------------------|
d--------------------------------------6---3---|
a----------------------------------------------|
e-555555222222444444111111-0-2-1-2-4-3-4---1---|
                           . . . . . .

riff 2 play this here 2 times
e--------------------------------------------------------------------------|
b--------------------------------------------------------------------------|
g--------------------------------------------------------------------------|
d-------------6---3---------------9/8-10--------------6---3---101010107777-|
a--------------------------------------------------------------------------|
e-0-2-1-2-4-3-4---1---0-2-1-2-4-3-7/6--8--0-2-1-2-4-3-4---1----8-8-8-85555-|
  . . . . . .         . . . . . .         . . . . . .
now go back and play all of riff 1 again 2 times after that play riff 2 again 4 times 
then play this here below once

e--------------------------------------|
b--------------------------------------|
g--------------------------------------|
d------------------------------------7-|
a-1111111111117777101010101010666666-6-|
e------------------------------------5-|
                                     .
riff 3
e---------------------------------------------------------------------------|
b---------------------------------------------------------------------------|
g---------------------------------------------------------------------------|
d-----6-----6-----6-----6-----6----6------6------6------4-----4-----4-----4-|
a---------------------------------------------------------------------------|
e-3-3---3-3---3-3---3-3---3-3---3-3---3-3---3-3-----3-3---3-3---3-3---3-3---|

riff 3 continued play all of this 2 times
e-------------------------|
b-------------------------|
g-------------------------|
d-----2-----2-----2-----2-|
a-------------------------|
e-3-3---3-3---3-3---3-3---|

riff 4 play this 2 times this is the way he did it when playing live
e-----------------------------------------------------------------------|
b-----------------------------------------------------------------------|
g-----------------------------------------------------------------------|
d-----------------------------------------------------------------------|
a-888888888888888888855444444444444777777774455555555222222222222222222-|
e-----------------------------------------------------------------------|

now he started playing the solo then after that he played riff 4 here two times again 
then he went back and played all of the intro just one time then he played all of riff 1 again
just one time thus ending the song awesome fucking show man i cant wait to go again
Suggest correction
Give kudos to tab author, rate the tab!
1 2 3 4 5
comments
print report bad tab
guest
You may want to rate the tab now too:
select rating
Wanna post a correction for this tab? Suggest correction