Oops, an error
Loading. Please wait.

Before Dishonor Bass

version 1
version 1

Whole song

Interactive

771 views 1 this week
2 commentsread comments
1 2 3 4 5
x 3
add to favorites
launch autoscroll
font size
0
reset
guitar tuner
×
Best way to learn
"Before Dishonor"
Autoscroll
slow
fast
+/-
esc
set tempo
stop
artist - hatebreed
song - before dishonor
album - satisfaction is the death of desire
label - victory records
tuning - (high to low) F, C, G, D, 
tabbed by : Brendan Mearns
bren@riconnect.com
 
INTRO (repeat)
F---------------------------------------------------------------------------------------------
C---------------------------------------------------------------------------------------------
G---------------------------------------------------------------------------------------------
D ------1-- 0-- 1-- 0-- 3-- 1-- 0--1----------------------------------------------------------
VERSE
F---------------------------------------------------------------------------------------------
C---------------------------------------------------------------------------------------------
G---------------------------------------------------------------------------------------------
D ------ 0-- 0----- 0-- 0----- 0-- 0----- 0-- 0----- 1-- 0-- 0----- 3-- 0-- 0--1-- 0-- 1-- 0--
VERSE 2
F---------------------------------------------------------------------------------------------
C---------------------------------------------------------------------------------------------
G---------------------------------------------------------------------------------------------
D ------ 0-- 0-- 1---- 0-- 0-- 1---- 0-- 0-- 1---- 1-- 0-- 1-- 0-- 3-- 1-- 0--1---------------
that's all it is for this song and you will need the cd to get the rhythym and
timing.
Suggest correction
Give kudos to tab author, rate the tab!
1 2 3 4 5
comments
print report bad tab
2 comments total.
0 reply
spic_n_span1 10 Oct 27, 2002 07:00 PM

NO NO NO!!!!!!!!!!
ITS IN B STANDARD SO GO OUT AND BUY A 5 STRING
AND THE MAIN PART GOES LIKE THIS
E---------------------0000000-3-0-5-0-6
B-0000000-3-0-5-0-6--------------------

AND THE THE OTHER PART THE CHORUS OR WHATEVER IS
B-1-1-0-1-1-0-3355665503----
something like that anyway
The Spic

0 reply
hatebreed_666 10 May 02, 2006 03:25 AM

the hatebreed player dont even use a 5 string u stupid ****!!!!

guest
You may want to rate the tab now too:
select rating
Wanna post a correction for this tab? Suggest correction