Oops, an error
Loading. Please wait.

Divine Judgement tab

145 views 1 this week
no commentswrite comment
1 2 3 4 5
3 more votes to show rating
add to favorites
×
Save as Personal and add changes to this tab that will be seen only by you. Learn more ›
×
You can save this tab as Personal to edit and correct it or add notes. All changes will be seen only by you. Learn more »
launch autoscroll
font size
0
reset
how to read this tab
guitar tuner
edit
Autoscroll
slow
fast
+/-
esc
set tempo
stop
-------------------------------------------------------------------------------
                             DIVINE JUDGMENT - Hatebreed
-------------------------------------------------------------------------------
Tabbed by: patjennings61

Tuning: CGCFAD

Bass Intro

D|---------------------|----------------------------|--------|--------|
A|---------------------|----------------------------|--------|--------|
F|---------------------|----------------------------|--------|--------|
C|---------------------|----------------------------|--------|--------|
G|-1-------------------|----------------------------|-0------|-x\-----|
C|-1-------------------|----------------------------|-0------|-x\-----|


Verse 1

PM all the single notes on the C string
D|-----------------------------------------|----------------------------------|
A|-----------------------------------------|----------------------------------|
F|-----------------------------------------|----------------------------------|
C|-----------------------------------------|----------------------------------|
G|-1-----------------4---------------------|-9----6----1----------------------|
C|-1---0--0----0--0--4---0--0--0--0--0--0--|-9----6----1----1--1--1--1--1--1--|


D|-----------------------------------------|----------------------------|
A|-----------------------------------------|----------------------------|
F|-----------------------------------------|----------------------------|
C|-----------------------------------------|----------------------------|
G|-1-----------------4---------------------|-9----6----1----3---3---3---|
C|-1---0--0----0--0--4---0--0--0--0--0--0--|-9----6----1----3---3---3---|


D|-----------------------------------------|----------------------------------|
A|-----------------------------------------|----------------------------------|
F|-----------------------------------------|----------------------------------|
C|-----------------------------------------|----------------------------------|
G|-1-----------------4---------------------|-9----6----1----------------------|
C|-1---0--0----0--0--4---0--0--0--0--0--0--|-9----6----1----1--1--1--1--1--1--|


D|-----------------------------------------|----------------------------|
A|-----------------------------------------|----------------------------|
F|-----------------------------------------|----------------------------|
C|-----------------------------------------|----------------------------|
G|-1-----------------4---------------------|-9----6----1----3---3---3---|
C|-1---0--0----0--0--4---0--0--0--0--0--0--|-9----6----1----3---3---3---|


Chorus 1

D|---------------------|---------------------|---------------------|---------------------|
A|---------------------|---------------------|---------------------|---------------------|
F|---------------------|---------------------|---------------------|---------------------|
C|-4----4----4---------|-3----3----3---------|-4----4----4---------|-3----3----3----3----|
G|-2----2----2---------|-1----1----1---------|-2----2----2---------|-1----1----1----1----|
C|-4----4----4---------|-3----3----3---------|-4----4----4---------|-3----3----3----3----|


Verse 2

D|-----------------------------------------|----------------------------------|
A|-----------------------------------------|----------------------------------|
F|-----------------------------------------|----------------------------------|
C|-----------------------------------------|----------------------------------|
G|-1-----------------4---------------------|-9----6----1----------------------|
C|-1---0--0----0--0--4---0--0--0--0--0--0--|-9----6----1----1--1--1--1--1--1--|


D|-----------------------------------------|----------------------------|
A|-----------------------------------------|----------------------------|
F|-----------------------------------------|----------------------------|
C|-----------------------------------------|----------------------------|
G|-1-----------------4---------------------|-9----6----1----3---3---3---|
C|-1---0--0----0--0--4---0--0--0--0--0--0--|-9----6----1----3---3---3---|


D|-----------------------------------------|----------------------------------|
A|-----------------------------------------|----------------------------------|
F|-----------------------------------------|----------------------------------|
C|-----------------------------------------|----------------------------------|
G|-1-----------------4---------------------|-9----6----1----------------------|
C|-1---0--0----0--0--4---0--0--0--0--0--0--|-9----6----1----1--1--1--1--1--1--|


D|-----------------------------------------|----------------------------|
A|-----------------------------------------|----------------------------|
F|-----------------------------------------|----------------------------|
C|-----------------------------------------|----------------------------|
G|-1-----------------4---------------------|-9----6----1----3---3---3---|
C|-1---0--0----0--0--4---0--0--0--0--0--0--|-9----6----1----3---3---3---|


Chorus 2

D|---------------------|---------------------|---------------------|---------------------|
A|---------------------|---------------------|---------------------|---------------------|
F|---------------------|---------------------|---------------------|---------------------|
C|-4----4----4---------|-3----3----3---------|-4----4----4---------|-3----3----3---------|
G|-2----2----2---------|-1----1----1---------|-2----2----2---------|-1----1----1---------|
C|-4----4----4---------|-3----3----3---------|-4----4----4---------|-3----3----3---------|


D|---------------------|---------------------|---------------------|--------------------------|
A|---------------------|---------------------|---------------------|--------------------------|
F|---------------------|---------------------|---------------------|--------------------------|
C|-4----4----4---------|-3----3----3---------|-4----4----4---------|-3----3----3--------------|
G|-2----2----2---------|-1----1----1---------|-2----2----2---------|-1----1----1--------------|
C|-4----4----4---------|-3----3----3---------|-4----4----4---------|-3----3----3--------------|


Break

Repeat 3 times
D|-----------------------|--------------------|-----------------------|---------------------------------|
A|-----------------------|--------------------|-----------------------|---------------------------------|
F|-----------------------|--------------------|-----------------------|---------------------------------|
C|-----------------------|--------------------|-----------------------|---------------------------------|
G|-6---3---0---------6---|-6---3---0----------|-6---3---0---------6---|-6---3---0---3---5---5---5---5---|
C|-6---3---0---------6---|-6---3---0----------|-6---3---0---------6---|-6---3---0---3---5---5---5---5---|

Then a 4th time with a different fill at the end
D|-----------------------|--------------------|-----------------------|-------------------------------------|
A|-----------------------|--------------------|-----------------------|-------------------------------------|
F|-----------------------|--------------------|-----------------------|-------------------------------------|
C|-----------------------|--------------------|-----------------------|-------------------------------------|
G|-6---3---0---------6---|-6---3---0----------|-6---3---0---------6---|-6---3---0---3------------5------5---|
C|-6---3---0---------6---|-6---3---0----------|-6---3---0---------6---|-6---3---0---3---5--5--5--5---5--5---|

End with this. PM the single notes.
D|-----------------------------------------|-------|
A|-----------------------------------------|-------|
F|-----------------------------------------|-------|
C|-----------------------------------------|-------|
G|----------4------4------------3------3---|-3-----|
C|-4--4--4--4---4--4---3--3--3--3---3--3---|-3-----|


Let ring a first time for 2 measures…
D|----------------|----------------|
A|----------------|----------------|
F|----------------|----------------|
C|-0--------------|----------------|
G|-0--------------|----------------|
C|-0--------------|----------------|


…And a second time for 8 measures
D|----------------|-------|-------|-------|-------|-------|-------|-------|
A|----------------|-------|-------|-------|-------|-------|-------|-------|
F|----------------|-------|-------|-------|-------|-------|-------|-------|
C|-0--------------|-------|-------|-------|-------|-------|-------|-------|
G|-0--------------|-------|-------|-------|-------|-------|-------|-------|
C|-0--------------|-------|-------|-------|-------|-------|-------|-------|


Then comes the climb for the final riff. PM all.
D|---------------------------------|---------------------------------|
A|---------------------------------|---------------------------------|
F|---------------------------------|---------------------------------|
C|---------------------------------|---------------------------------|
G|---------------------------------|---------------------------------|
C|-0---0---0---0---0---0---0---0---|-0---0---0---0---0---0---0---0---|


D|---------------------------------|---------------------------------|---------------------------------|
B|---------------------------------|---------------------------------|---------------------------------|
G|---------------------------------|---------------------------------|---------------------------------|
C|---------------------------------|---------------------------------|---------------------------------|
G|---------------------------------|---------------------------------|---------------------------------|
C|-0---0---0---0---0---0---0---0---|-0---0---0---0---0---0---0---0---|-0---0---0---0---0---0---0---0---|


D|---------------------------------|---------------------------------|---------------------------------|
A|---------------------------------|---------------------------------|---------------------------------|
F|---------------------------------|---------------------------------|---------------------------------|
C|---------------------------------|---------------------------------|---------------------------------|
G|---------------------------------|---------------------------------|---------------------------------|
C|-0---0---0---0---0---0---0---0---|-0---0---0---0---0---0---0---0---|-0---0---0---0---0---0---0---0---|


Final Riff

Repeat 4 times, PM all except the chords on the last measure
D|-------------------------------------------------|-------------------------------------------------|
A|-------------------------------------------------|-------------------------------------------------|
F|-------------------------------------------------|-------------------------------------------------|
C|-------------------------------------------------|-------------------------------------------------|
G|-------------------------------------------------|-------------------------------------------------|
C|-0--0--0--0--0--0--0--0--0--0--0--0--0--0--0--0--|-0-----------0--0--0--0--0-----------0--0--0--0--|


D|-------------------------------------------------|--------------------------|
A|-------------------------------------------------|--------------------------|
F|-------------------------------------------------|--------------------------|
C|-------------------------------------------------|-7----6----8--------------|
G|-------------------------------------------------|-5----4----6----0---3-----|
C|-0--0--0--0--0--0--0--0--0--0--0--0--0--0--0--0--|----------------0---3-----|

End

D|----------------|
A|----------------|
F|----------------|
C|-0--------------|
G|-0--------------|
C|-0--------------|


************************************

| /   slide up
| \   slide down
| h   hammer-on
| p   pull-off
| ~   vibrato
| +   harmonic
| x   Mute note
| b   Bend
| pb  Pre-bend
| br  Bend release
| pbr Pre-bend release
| brb Bend release bend

************************************
Suggest correction
Creating personal tab
Creating personal tab
You can edit any tab online and save it as your Personal.

You can edit, replace or remove any tab part or add personal notes – all changes will be seen only by you.

Personal tabs can be accessed anytime from any device, even offline.
Learn more »
Give kudos to tab author, rate the tab!
1 2 3 4 5
comments
print report bad tab
guest
You may want to rate the tab now too:
select rating
Wanna post a correction for this tab? Suggest correction