Oops, an error
Loading. Please wait.
We have an official Last Breath tab made by UG professional guitarists. Check out the tab »
×
1,910 views 3 this week
2 commentsread comments
1 2 3 4 5
1 last vote to show rating
add to favorites
×
Save as Personal and add changes to this tab that will be seen only by you. Learn more ›
×
You can save this tab as Personal to edit and correct it or add notes. All changes will be seen only by you. Learn more »
launch autoscroll
font size
0
reset
how to read this tab
guitar tuner
edit
Autoscroll
slow
fast
+/-
esc
set tempo
stop
Author
Dylan - ZakkAtttakkk@aol.com
St.Angarrr- Whiplash2343@aol.com

Ok so i tried posting this on my other name.Didn't work
but i noticed other people really suck as far
as making a right tab for this.This is pretty much
the easiest song ever.I hate how people keep getting it wrong.
Anyhow
Tuning C'G'C'F'A'D
Riff 1.
E---------------------|
B---------------------|
G---------------------|
D---------------------|
A-0--4-3--0--3-4--0-3-|
E-0--4-3--0--3-4--0-3-| Repeat this 4 times (i believe)

Then riff two allow extra time between strokes.
E---------------------|
B---------------------|
G---------------------|
D-0--4-3--0--3-4--0-3-|
A-0--4-3--0--3-4--0-3-|
E-0--4-3--0--3-4--0-3-|

Riff 3.
Listen closely,you can hear a higher
note after the first break.
                      ____V____
E-----------------------------------|
B-----------------------------------|
G-----------------------------------|
D-----------------------------------|
A-2-0-0-3-0-0-0-0---2-0-0-4-0-0-0-0-|
E-2-0-0-3-0-0-0-0---2-0-0-4-0-0-0-0-|  Repeat 3 times.
                      ____^_____

Fill for riff 3.
E---------------------|
B---------------------|
G---------------------|
D---------------------|
A---------------------|
E-3333-2222-1111-0000-|

Thats it.Very easy song.Enjoy!
Suggest correction
Creating personal tab
Creating personal tab
You can edit any tab online and save it as your Personal.

You can edit, replace or remove any tab part or add personal notes – all changes will be seen only by you.

Personal tabs can be accessed anytime from any device, even offline.
Learn more »
Give kudos to tab author, rate the tab!
1 2 3 4 5
comments
print report bad tab
2 comments total.
0 reply
rawk out 10 Sep 24, 2009 04:15 AM

WOAH! finally som1 ****ing gets it ****ing right
this place is mostly young people oriented and they keep gettin
it wrong/you've kinda changed my thoughts bout' it/5***** all the ****ing way

0 reply
Etaan5 40 Jul 05, 2011 05:03 PM

actually it's still wrong.

It actually goes
E---------------------|
B---------------------|
G---------------------|
D---------------------|
A-0--4-3--0--4-3--0-3-|
E-0--4-3--0--4-3--0-3-|

and then its

E-----------------------------------|
B-----------------------------------|
G-----------------------------------|
D-----------------------------------|
A-1-0-0-3-0-0-0-0---1-0-0-4-0-0-0-0-|
E-1-0-0-3-0-0-0-0---1-0-0-4-0-0-0-0-|

and the fill for riff 3 goes

E---------------------|
B---------------------|
G---------------------|
D-4444-3333-0000-3~~--|
A---------------------|
E---------------------|

so yeah its actually all wrong

guest
You may want to rate the tab now too:
select rating
Wanna post a correction for this tab? Suggest correction