Oops, an error
Loading. Please wait.
We have an official Live For This tab made by UG professional guitarists. Check out the tab »
×
5,745 views 1 this week
8 commentsread comments
1 2 3 4 5
x 12
add to favorites
×
Save as Personal and add changes to this tab that will be seen only by you. Learn more ›
×
You can save this tab as Personal to edit and correct it or add notes. All changes will be seen only by you. Learn more »
launch autoscroll
font size
0
reset
how to read this tab
guitar tuner
edit
Autoscroll
slow
fast
+/-
esc
set tempo
stop
Author
Difficulty
----------------------------------------------------------------------------
                             live for this - hatebreed
----------------------------------------------------------------------------
Tabbed by: sean crow
Email: die_for_nothing_323@hotmail.com

Tuning:CGCFAd

e|---------------------------------------------------------|
B|---------------------------------------------------------|
G|---------------------------------------------------------|
D|-7-5-8-----7-----7----------5-5-5-5-5-5-5-5-8-8-8--------|   X4
A|-5-3-6-0-0-5-0-0-5-0-0--x3--3-3-3-3-3-3-3-3-6-6-6--------|
D|-------0-0---0-0---0-0-----------------------------------|
         . .   . .   . .
e|------------------------------------|
B|------------------------------------|
G|------------------------------------|
D|-0-----7-----6-----4-----4-----4----|  X4
A|-0-0-0-7-0-0-6-0-0-4-0-0-4-0-0-4----|
D|-0-0-0-7-0-0-6-0-0-4-0-0-4-0-0-4----|
     . .   . .   . .   . .   . .
e|---------------------------------------------------------|
B|---------------------------------------------------------|
G|---------------------------------------------------------|
D|-7-5-8-----7-----7----------5-5-5-5-5-5-5-5-8-8-8--------|   X2
A|-5-3-6-0-0-5-0-0-5-0-0--x3--3-3-3-3-3-3-3-3-6-6-6--------|
D|-------0-0---0-0---0-0-----------------------------------|
         . .   . .   . .
e|------------------------------------|
B|------------------------------------|
G|------------------------------------|
D|-0-----7-----6-----4-----4-----4----|  X4
A|-0-0-0-7-0-0-6-0-0-4-0-0-4-0-0-4----|
D|-0-0-0-7-0-0-6-0-0-4-0-0-4-0-0-4----|
     . .   . .   . .   . .   . .
e|---------------------------------------------------------|
B|---------------------------------------------------------|
G|---------------------------------------------------------|
D|-7-5-8-----7-----7----------5-5-5-5-5-5-5-5-8-8-8--------|   X4
A|-5-3-6-0-0-5-0-0-5-0-0--x3--3-3-3-3-3-3-3-3-6-6-6--------|
D|-------0-0---0-0---0-0-----------------------------------|
         . .   . .   . .
e|---------------------------------------|
B|---------------------------------------|
G|---------------------------------------|
D|-0~~~0~~~0~~~5-5-5-5-5-5-5-5-8-8-8-----|    X2   end with  D--0--
A|-0~~~0~~~0~~~3-3-3-3-3-3-3-3-6-6-6-----|                   A--0--
D|-0~~~0~~~0~~~--------------------------|                   D--0--

            
            
Suggest correction
Creating personal tab
Creating personal tab
You can edit any tab online and save it as your Personal.

You can edit, replace or remove any tab part or add personal notes – all changes will be seen only by you.

Personal tabs can be accessed anytime from any device, even offline.
Learn more »
comments
print report bad tab
8 comments total. Showing first comments.
0 reply
mitchit 10 Sep 12, 2006 02:34 PM

flawless...absoulutely spot on!!

+1 reply
Brendan1993 10 Jan 01, 2007 09:05 PM

How come it says that it's drop c tuning but on the tab it says drop d?

0 reply
Robin Graves 1,015 Feb 01, 2007 06:55 AM

it's missing another open note in the intro, and a the open chords at the end, but i still give it a 5.

guest
You may want to rate the tab now too:
select rating
Wanna post a correction for this tab? Suggest correction