Oops, an error
Loading. Please wait.

Perseverance tab

version 2
version 2

Whole song

Interactive

3,775 views 3 this week
4 commentsread comments
1 2 3 4 5
x 9
add to favorites
×
Save as Personal and add changes to this tab that will be seen only by you. Learn more ›
×
You can save this tab as Personal to edit and correct it or add notes. All changes will be seen only by you. Learn more »
launch autoscroll
font size
0
reset
how to read this tab
guitar tuner
edit
Autoscroll
slow
fast
+/-
esc
set tempo
stop
Author
Perseverance - Hatebreed  Whiplash2343@aol.com
Drop C tuning cgcfad
Intro
E---------------------------|
b---------------------------|
g----------------2-3-5------|
d--0-0-0-0-0-0---2-3-5------|
a--0-0-0-0-0-0------------0-|
e--0-0-0-0-0-0------------0-|
PM............
I know your fears of life and your struggles
with fame......
e--------------------------------------------|V1
b--------------------------------------------|
g--------------------------------------------|
d--------------------------------------------|
a--8\7--0--0-2--2-1-0-----7\6--0--0-2--2-1-0-|
e--8\7--0--0-2--2-1-0-----7\6--0--0-2--2-1-0-|  Repeat several times.

The only thing that you know in your life is
vvvvHOSTILITYvvvv
E-----------------------------|V2
b-----------------------------|
g-----------------------------|
d--------1-------------1------|
a-1-0-0--1-0-0--1-0-0--1-0-0--|
e-1-0-0--1-0-0--1-0-0--1-0-0--|
PM  . .    . .    . .    . .

Your world is coming apart.
e----------------------------|
b----------------------------|
g----------------------------|
d--------1-------------1-----|
a-1-0-0--1-0-0--1-0-0--1-0-0-|
e-1-0-0--1-0-0--1-0-0--1-0-0-|
PM  . .    . .    . .    . .

Remain......
E---------------------------------|
b---------------------------------|
g---------------------------2-3-5-|
d-0----------0-0-0-0-0-0-0--2-3-5-|
a-0----------0-0-0-0-0-0-0--------|
e-0----------0-0-0-0-0-0-0--------|
Ohhhhhhhh PERSEVERANCE!
Play v2 again several times.
Then back to Verse one.And repeat.
Please rate and comment! thanks!

            
            
Suggest correction
Creating personal tab
Creating personal tab
You can edit any tab online and save it as your Personal.

You can edit, replace or remove any tab part or add personal notes – all changes will be seen only by you.

Personal tabs can be accessed anytime from any device, even offline.
Learn more »
comments
print report bad tab
4 comments total. Showing first comments.
0 reply
Slipknot xXx 10 Sep 09, 2009 09:23 AM

pretty much exactly the way it goes dude
good job
much more specific than the othr 1

0 reply
St.Angarrr 163 Sep 13, 2009 09:29 AM

Also as a foot note in the main riff...the 1 00 2 00 one....you can either play
e--------------------
b--------------------
g--------------------
d--------1-----------
a-1-0-0--1-0-0--1-0-0
e-1-0-0--1-0-0--1-0-0
Or you can play what i posted pretty much the same tone just a lil lower.Thanks for the comment.

0 reply
xxhendrixfanxx 16 Sep 14, 2009 04:09 AM

yeah great tab, i don't much care for the other 1

guest
You may want to rate the tab now too:
select rating
Wanna post a correction for this tab? Suggest correction