Oops, an error
Loading. Please wait.

Under The Knife Tab

819 views 3 this week
2 commentsread comments
1 2 3 4 5
2 more votes to show rating
add to favorites
launch autoscroll
font size
0
reset
how to read this tab
guitar tuner
×
Best way to learn
"Under The Knife"
Autoscroll
slow
fast
+/-
esc
set tempo
stop
artist:    HATEBREED
song:      UNDER THE KNIFE
cd:        UNDER THE KNIFE
tabbed by: OZRIC
tuning:    drop "C"

x:         palm mute

d|---------------------------| X1 (INTRO)
A|---------------------------|
F|---------------------------|
C|-0------3-6-5-3------------|
G|-0------3-6-5-3------------|
C|-0------3-6-5-3------------|

d|---------------------------|-------------------------| X4
A|---------------------------|-------------------------|
F|---------------------------|-------------------------|
C|-1--0-0--1--0-0--3-6-5-3-3-|-1--0-0--1--0-0--3-6-5-3-|
G|-1--0-0--1--0-0--3-6-5-3-3-|-1--0-0--1--0-0--3-6-5-3-|
C|-1--0-0--1--0-0--3-6-5-3-3-|-1--0-0--1--0-0--3-6-5-3-|

d|---------------------------| X1
A|---------------------------|
F|---------------------------|
C|-0-------------------------|
G|-0-------------------------|
C|-0--(LET RING)-------------|

d|--------------------------------------------------------|X4
A|---------------------------|----------------------------|LAST TIME PLAY THIS PART
F|------------(**---**)------| INSTEAD OF THE OTHER ONE---|
C|-6--0--1--0--3-0--1--------|--6-3-0-1-------------------|
G|-6--0--1--0--3-0--1--------|--6-3-0-1-------------------|
C|-6--0--1--0--3-0--1--------|--6-3-0-1-------------------|
               X X              X X X X

d|---------------------------|-------------------------| X4
A|---------------------------|-------------------------|
F|---------------------------|-------------------------|
C|-6-0-1-0--3-0--1-1---------|-6-0-1-0--3-0--3-3-------|
G|-6-0-1-0--3-0--1-1---------|-6-0-1-0--3-0--3-3-------|
C|-6-0-1-0--3-0--1-1---------|-6-0-1-0--3-0--3-3-------|
            X X                         X X

REPEAT SOME OF THE STEPS, YOU'LL GET IT.
Suggest correction
Give kudos to tab author, rate the tab!
1 2 3 4 5
comments
print report bad tab
2 comments total.
0 reply
SevenGuard 10 Apr 05, 2014 11:48 AM

d|---------------------------| X1 (INTRO)
A|---------------------------|
F|---------------------------|
C|-0------3-6-5-3------------|
G|-0------3-6-5-3------------|
C|-0------3-6-5-3------------|

d|---------------------------|-------------------------| X4
A|---------------------------|-------------------------|
F|---------------------------|-------------------------|
C|-1-0--0--1-0--0--3-6-5-3---|-1-0--0--1-0--0--3-6-5-3-|
G|-1-0--0--1-0--0--3-6-5-3---|-1-0--0--1-0--0--3-6-5-3-|
C|-1-0--0--1-0--0--3-6-5-3---|-1-0--0--1-0--0--3-6-5-3-|

d|---------------------------|
A|---------------------------|
F|---------------------------|
C|-0~------------------------|
G|-0~-(LET RING 4 MEASURES)--|
C|-0~------------------------|

d|----------------------- X3|--------------------------|
A|--------------------------|--------------------------|
F|--------------------------|--------------------------|
C|-6---0---1---0---3-0------|-6---0---1--0-0---0-------|
G|-6---0---1---0---3-0-2----|-6---0---1--0-0---0-------|
C|-6---0---1---0---3-0-2----|-6---0---1--0-0---0-------|
pm . .

d|----------------------- X3|--------------------------| ALL X2
A|--------------------------|--------------------------|
F|--------------------------|--------------------------|
C|-6---0---1---0--0-3-0-----|-6---0---1---0--0-3-0-2-0-|
G|-6---0---1---0--0-3-0-2---|-6---0---1---0--0-3-0-2-0-|
C|-6---0---1---0--0-3-0-2---|-6---0---1---0--0-3-0-2-0-|
pm . . . . . .

0 reply
SevenGuard 10 Apr 05, 2014 11:49 AM

d|---------------------------| X1 (INTRO)
A|---------------------------|
F|---------------------------|
C|-0------3-6-5-3------------|
G|-0------3-6-5-3------------|
C|-0------3-6-5-3------------|

d|---------------------------|-------------------------| X4
A|---------------------------|-------------------------|
F|---------------------------|-------------------------|
C|-1-0--0--1-0--0--3-6-5-3---|-1-0--0--1-0--0--3-6-5-3-|
G|-1-0--0--1-0--0--3-6-5-3---|-1-0--0--1-0--0--3-6-5-3-|
C|-1-0--0--1-0--0--3-6-5-3---|-1-0--0--1-0--0--3-6-5-3-|

d|---------------------------|
A|---------------------------|
F|---------------------------|
C|-0~------------------------|
G|-0~-(LET RING 4 MEASURES)--|
C|-0~------------------------|

d|----------------------- X3|--------------------------|
A|--------------------------|--------------------------|
F|--------------------------|--------------------------|
C|-6---0---1---0---3-0------|-6---0---1--0-0---0-------|
G|-6---0---1---0---3-0-2----|-6---0---1--0-0---0-------|
C|-6---0---1---0---3-0-2----|-6---0---1--0-0---0-------|
pm . .

d|----------------------- X3|--------------------------| ALL X2
A|--------------------------|--------------------------|
F|--------------------------|--------------------------|
C|-6---0---1---0--0-3-0-----|-6---0---1---0--0-3-0-2-0-|
G|-6---0---1---0--0-3-0-2---|-6---0---1---0--0-3-0-2-0-|
C|-6---0---1---0--0-3-0-2---|-6---0---1---0--0-3-0-2-0-|
pm . . . . . .

guest
You may want to rate the tab now too:
select rating
Wanna post a correction for this tab? Suggest correction