Oops, an error
Loading. Please wait.

1997 bass

by Hateen
158 views 1 this week
no commentswrite comment
1 2 3 4 5
3 more votes to show rating
add to favorites
×
Save as Personal and add changes to this tab that will be seen only by you. Learn more ›
×
You can save this tab as Personal to edit and correct it or add notes. All changes will be seen only by you. Learn more »
launch autoscroll
font size
0
reset
guitar tuner
backing track
0:00
0:00
edit
Autoscroll
slow
fast
+/-
esc
set tempo
stop
Author
ONLY GUITAR

"Mil novecentos e noventa e sete,
novembro ainda me lembro,
era fim de ano, eu não tinha nada e você um novo emprego,
foi quando tudo aconteceu..."

(START WITH DRUMS)
1x

|---------------------------5~75----5~75-----------|
|------------------------5-5-----5-5---------------|
|--7777-6666--4444--2222---------------------------|
|----------------------------------------00000000--|

"A vida era difícil mas juntos tudo estava bem,
algumas brigas claro mas isso é tão normal
quando se quer alguém,
como eu quis você"

2x                                                         
   B
|--------------------------|--------------------------|
|--------------------------|--------------------------|
|--2--2--2--2--2--2--2--2--|--2--2--2--2--2--2--2--2--|
|--------------------------|--------------------------|
             
   A                                                     E
|--------------------------------------------------------------------------|
|--------------------------------------------------------------------------|
|--0--0--0--0--0--0--0--0--|--0--0--0--0--0--0--0--0--|--7--7--7--7--7--7--|
|--------------------------|--------------------------|--------------------|

   B                         A
|--------------------------|--------------------------|
|--------------------------|--------------------------|
|--2--2--2--2--2--2--2--2--|--0--0--0--0--0--0--0--0--|
|--------------------------|--------------------------|

"E encontrava companhia,
num copo de bebida,
num cigarro ou outra droga qualquer,
já que não tinha mais vocêêê..."
(STOP AND LET RING)

SOLO

VERSE
2x

|---------------------------5~75----5~75-----------|
|------------------------5-5-----5-5---------------|
|--7777-6666--4444--2222---------------------------|
|----------------------------------------00000000--|

"Reaprender o caminho pra casa não foi algo tão simples,
nos primeiros dias eu me perdia nos meus passos sem você,
eu mal sabia o que fazer..

De vez em quando a gente se encontrava nas escadas,
eu tentava dizer algo e você sempre
dava riiiiiisada,
tudo vai acabar bem.."

2x                                                         
   B
|--------------------------|--------------------------|
|--------------------------|--------------------------|
|--2--2--2--2--2--2--2--2--|--2--2--2--2--2--2--2--2--|
|--------------------------|--------------------------|

   A                                                     E             
|--------------------------|--------------------------|--------------------|
|--------------------------|--------------------------|--------------------|
|--0--0--0--0--0--0--0--0--|--0--0--0--0--0--0--0--0--|--7--7--7--7--7--7--|
|--------------------------|--------------------------|--------------------|

   F#                         E                        F#
|--------------------------|------------------------|--------------------------|
|--------------------------|------------------------|--------------------------|
|--9---9---9---9---9---9---|--7----7--7----7--7--7--|--9---9---9---9---9---9---|
|--------------------------|------------------------|--------------------------|

"Quase 10 anos depois,
eu consigo entender,
que eu tinha que continuar,
fosse com ou sem você,

Nem sei como cheguei aqui,
mas saiba que eu estou feliiiiiz!
A sua falta quase me matou,
hoje eu tenho tudo o que eu
sempre quiiiiiiiiiiiiiiis aaaaaaah!

   E              E/F#                      E              E/F#
|--------------------------------------------------------------------------------------|
|--------------------------------------------------------------------------------------|
|--7--7--7--7--7--7/9---9---9---9---9---9---7--7--7--7--7--7/9---9---9---9---9---9-----|
|--------------------------------------------------------------------------------------|

   B         A    A/B         A
|-----------------------------------------|
|-----------------------------------------|
|--14--14----12--11--14--14----12--11-----|
|-----------------------------------------|

"Mil novecentos e noventa e sete,
ainda me lembro,
de tudo que eu quero esqueceeeeeeer..."

   E
|-------------|
|-------------|
|-------------|
|--0--0-------|

ONLY GUITAR

            
            
Suggest correction
Creating personal tab
Creating personal tab
You can edit any tab online and save it as your Personal.

You can edit, replace or remove any tab part or add personal notes – all changes will be seen only by you.

Personal tabs can be accessed anytime from any device, even offline.
Learn more »
Give kudos to tab author, rate the tab!
1 2 3 4 5
comments
print report bad tab
guest
You may want to rate the tab now too:
select rating
Wanna post a correction for this tab? Suggest correction