Oops, an error
Loading. Please wait.

Cloaked In Shit Tab

version 1
version 1

Whole song

Interactive

601 views 3 this week
1 commentread comment
1 2 3 4 5
please rate
add to favorites
launch autoscroll
font size
0
reset
how to read this tab
guitar tuner
Tab Pro tools
  • play this tab
  • loop segment
  • change instrument
  • show fretboard
  • metronome
×
Best way to learn
"Cloaked In Shit"
Autoscroll
slow
fast
+/-
esc
set tempo
stop
Contributor
Difficulty
Tuning
intermediate
C G C F A D
Cloaked In Shit by Hatesphere

We are heading for ruin and demise; suffer under the lord of the flies!
APOOOOCALYYPSE!

Dropped C tuning

(possible feedback?)
|--14--------|
|------------|
|------------|
|------------|
|------------|
|------------|


|-------------------------------------|
|-------------------------------------|
|-------------------------------------|  x2
|-------------------------------------|  (1st time with 1 guitar,
|-------------------------------------|  2nd time with both guitars)
|-0-0-000-000-0-0-000-000-0-0-0-0-----|
  [ -------PM-------------------------|

|-------------------------------------------------------------------|
|-------------------------------------------------------------------|
|-------------------------------------------------------------------|
|-------------------------------------------------------------------|
|-------------------------------6-5-------------6-5-----6-4-----4-5-|
|-4-4-444-444-4-4-444-444-4-4-4-----4-444-4-444-----4-4-----4-4-----|

|-------------------------------------------------------------------|
|-------------------------------------------------------------------|
|-------------------------------------------------------------------|
|-------------------------------------------------------------------|
|-------------------------------------------------------------------|
|-5-555-5-555-5-555-555-555-555-77777777-88888888-22222222-33333333-|

|------------------------------------------------------------|
|------------------------------------------------------------|
|------------------------------------------------------------|
|------------------------------------------------------------|
|---------------------------------------0--0--5--4--3--------|
|-0-0-000-000-0-0-000-000-0-0-0-0-0-0-0-0--0---43-32-1-------|
 [ -------PM-------------------------------------------------|          [-PM-]

|----------------------------------------------------------------------|
|----------------------------------------------------------------------|
|------------7\9-----9\10--10-12-14-7-----7\9-----9\10---10-10/9/7-7/6-|
|------------x-x-----x-x----x--x--x-x-----x-x-----x--x----x--x-x-x-x-x-|
|-0--0---0-0-5\7-0-0-7\8-0--8-10-12-5-0-0-5\7-0-0-7\-8-0--8--8/7/5-5/4-|
|-0--0---0-0-----0-0-----0------------0-0-----0-0------0---------------|

|-------------------------------------------------------|
|-------------------------------------------------------|
|-9\11-----11\12---12-14-6-6/5-------------5-----5\6-7--|
|-x-x-------x--x----x--x-x-x-x-------------x-----x-x-x--|
|-7\9--0-0--9\10-0-10-12-4-4/3-0-0-0-0-0-0-3-0-0-3\4-5--|
|------0-0-------0-------------0-0-0-0-0-0---0-0--------|

|----------------------------------------------------------------------|
|----------------------------------------------------------------------|
|----------------------------------------------------------------------|
|----------------------------------------------------------------------|
|----------------------------------------------------------------------|
|-5-5-555-5-555-5-555-555-55555555-77777777-88888888-22222222-33333333-|

|--------------------------------------------------------------------|
|--------------------------------------------------------------------|
|--------------------------------------------------------------------|
|--------------------------------------------------------------------|
|----------------------------------------------------------12/-------|
|-0-0-000-000-0-0-000-000-0-0-0-0--0-0-000-000-0-0-000-000-12/-------|
  [ -------PM-----------]          [ -------PM-----------------------|

|-----------------------------------------------------------------------|
|-----------------------------------------------------------------------|
|------------------------------------------------------------------|<---|Guitar I
|-----------------------------------------------------------------------|
|-----------------------------------------------------------------------|
|-0-0-000-000-0-0-000-000-0-0-0-0--0-0-000-000-0-0-000-000-0-0-0-0------|
  [ -------PM-----------]          [ -------PM--------------------------|

|------------------------------------------------------------------|
|------------------------------------------------------------------|
|------------------------------------------------------------------|<--[Guitar II
|------------------------------------------------------------------|
|-------b----------------------------------------------------------|(1st time guitar II only,
|-12-0-787-11-8-7-10-0-7-0-3/5-0-12-0-7-8-7-11-8-7-10-0-7-0-3/5----|2nd time both 
& no guitar I part)

|------------------------------------------------------------------|
|------------------------------------------------------------------|
|------------------------------------------------------------------|<--[Both Guitars
|------------------------------------------------------------------| (P=palm mute,
|-0------------------------------3/5-------------------------------|  palm muted)
|-0-12-8-7-11-8-7-10-8-0-7-0-5-0-3/5-------------------------------|
  P O  P P O  P P O  O P O P O P O O

|----|---------------------------|--------------|----------|
|-PM-|---------------------------|-----1st-time-|----------|
|----|---------------------------|--------------|----------|
|-22-|-2-2----2-2----0-0----2-2--|--------2/3-2-|----------|
|-22-|-2-2-22-3-3-22-1-1-22-2-2--|-222222-2/3-2-|-/5-3-01--|
|-22-|-----22-----22-----22------|-222222-2/3-2-|-/5-3-01--|

Chorus:
|--------------------------------------------------|
|--------------------------------------------------|
|--------------------------------------------------| 2x
|-2-0------2-0-----------2-0------5-----4-----2----|
|-2-0------2-0-----------2-0------3-5-4-2-4-3-0-3--|
|-2-0--/7--2-0--/7-10-7--2-0--/7----5-4---4-3---3--|

Sorry, this is all I know so far.
I will edit or repost with the whole song (including solo) once I finish.
Please comment. Thanks!
comments
We did not receive enough feedback on this tab! Please rate:
print report bad tab
1 2 3 4 5
1 comment total.
0 reply
giitardude wrote on July 1 2010, 02:42 pm

great tab!

I want to post or [tab]
guest
You may want to rate the tab now too:
select rating
Please do not post tabs as comments. Select "correction" instead!