Oops, an error
Loading. Please wait.

Its Not Hard To Hate Tab

13 views 1 this week
no commentswrite comment
1 2 3 4 5
3 more votes to show rating
add to favorites
launch autoscroll
font size
0
reset
how to read this tab
guitar tuner
Autoscroll
slow
fast
+/-
esc
set tempo
stop
Help us to improve Ultimate-Guitar.com Take our survey!
×
Author
Difficulty
Tuning
intermediate
D# G# C# F# A# D#
Tuned to E flat standard

Intro
|-----------------------1---------|
|-----------------------1---------|
|-----------------------1---------|
|--------------3--------3---------|
|-8-7-6-7-6-5--1--------3---------|
|-6-5-4-5-4-3-----------1---------|
  - - - - - - 

Riff 1
|-------------------------------|-------------------------------|
|-------------------------------|-------------------------------|
|-------------------------------|-------------------------------|
|-------------------------------|-------------------------------|
|-2-----2--2--2--2--2--2--2--1--|-2-2-2-2-2-2-2-2-2-2-2-2-2-2-1-|
|-0-----0--0--0--0--0--0--0-----|-0-0-0-0-0-0-0-0-0-0-0-0-0-0---|
        -  -  -  -  -  -  -       - - - - - - - - - - - - - -
|-------------------------------|-------------------------|
|-------------------------------|-------------------------|
|-------------------------------|-------------------------|
|-------------------------------|-------------------------|
|-2-----2--2--2--2--2--2--2--1--|-------------------------|
|-0-----0--0--0--0--0--0--0-----|-5-6-4-4-5-3-3-4-2-2-3-1-|
        -  -  -  -  -  -  -       - - - - - - - - - - - 
Riff 2
|-------------------------------------------------|x3
|-------------------------------------------------|
|-------------------------------------------------|
|-------------------------------------------------|
|-/8-----8--7--5--2---2-2---2-2-2-2-2-2-2-2-2-2-2-|
|-/6-----6--5--3--0---0-0---0-0-0-0-0-0-0-0-0-0-0-|
                      -     - - - - - -     - - - 
|-------------------------------------------------|x1
|-------------------------------------------------|
|-------------------------------------------------|
|-------------------------------------------------|
|-/8-----8--7--5----------------------------------|
|-/6-----6--5--3-4~--------3-4~--------3-4~-------|
                    
Riff 3
|----------------------------------||----------------------------------|
|----------------------------------||----------------------------------|
|----------------------------------||----------------------------------|
|----------------------------------||----------------------------------|
|--------------------8---8---8---8-||--------------------8---8---8---8-|
|-0000000000000000-006-006-006-006-||-3333333333333333-336-336-336-336-|
  ---------------- --  --  --  --     ---------------- --  --  --  --

Riff under the solo
|-------------------------------|x3|-------------------------------|x1
|-------------------------------|  |-------------------------------|
|-------------------------------|  |-------------------------------|
|-------------------------------|  |-------------------------------|
|-2-----2--2--2--2--2--2--2--1--|  |-5-----5--5--5--5--5--5--5--1--|
|-0-----0--0--0--0--0--0--0-----|  |-3-----3--3--3--3--3--3--3-----|
        -  -  -  -  -  -  -                -  -  -  -  -  -  - 
Suggest correction
Give kudos to tab author, rate the tab!
1 2 3 4 5
comments
print report bad tab
guest
You may want to rate the tab now too:
select rating
Wanna post a correction for this tab? Suggest correction