Oops, an error
Loading. Please wait.

God Slaying Machine Tab

40 views 1 this week
no commentswrite comment
1 2 3 4 5
3 more votes to show rating
add to favorites
launch autoscroll
font size
0
reset
how to read this tab
guitar tuner
Autoscroll
slow
fast
+/-
esc
set tempo
stop
Help us to improve Ultimate-Guitar.com Take our survey!
×
Author
Difficulty
intermediate
About this tab version
Has the piano intro and guitar riffs. Was this info helpful? Yes No
 Use the song to get rhythms right(i have tried to show it) and alter if you feel I'm wrong
(I probably am) the intro is the piano then it has its a guitar riff (verse follows but thats not included)
the post info rift plays over the main rift on the 4th time, the main rift continues to the chorus where its 
overlaid by a bass.

Hammer on: h
Slide up/down:/ \
Virbrato:~
  
[Intro]
Rhy: 1 2      1  & 2 &    1  &  2  &      1 & 2 &                                 (Drum kicks in here)
e|---13-------11-13--------11-13-16-11----11-13-----|--13-------11-13-------11-13-15------------------|
B|------13------------13-------------------------13-|-----13----------13------------------------------|
G|--------------------------------------------------|-------------------------------------------------|
D|--------------------------------------------------|-------------------------------------------------|
A|--------------------------------------------------|-------------------------------------------------|
E|--------------------------------------------------|-------------------------------------------------|

                                                                                        
e|---13------11-13---------11-13-16-11----11-13-----|--13------11-13-------11-13-15----11h13----------|
B|------13-----------13--------------------------13-|------13---------13-------------------h13--------|
G|--------------------------------------------------|-------------------------------------------------|
D|--------------------------------------------------|-------------------------------------------------|
A|--------------------------------------------------|-------------------------------------------------|
E|--------------------------------------------------|-------------------------------------------------|

                                                                                     
e|---13--------11-13--------11-13-16-11----11-13----|--13------11-13-------11-13-15---15~~~~~~~~------|
B|-------13------------13------------------------13-|------13---------13------------------------------|
G|--------------------------------------------------|-------------------------------------------------|
D|--------------------------------------------------|-------------------------------------------------|
A|--------------------------------------------------|-------------------------------------------------|
E|--------------------------------------------------|-------------------------------------------------|

[Post Intro riff]
e|-----------------------|-----------------------|
B|-----------------------|-----------------------|
G|-----------------------|-----------------------|
D|---5-5-5/8-5-5-5-5-5/6-|-5-5-5/8---8-8-10--\8--|    x3
A|---3-3-3/6-3-3-3-3-3/4-|-3-3-3/6---6-6-8 --\6--|
E|-----------------------|-----------------------|

[Fill]
e|--x--x--x--x-----x--x--x-x-x-x-x-x-x-x-x-------|
B|--x--x--x--x-----x--x--x-x-x-x-x-x-x-x-x-------|
G|--x--x--x--x-----x--x--x-x-x-x-x-x-x-x-x-------|
D|--x--x--x--x-----x--x--x-x-x-x-x-x-x-x-x-------|
A|--x--x--x--x-----x--x--x-x-x-x-x-x-x-x-x-------|
E|--x--x--x--x-----x--x--x-x-x-x-x-x-x-x-x-------|

[Main riff] (happens in under 3 seconds)
e|-----------------------------------------------|
B|-------------6-----------6-----4---6-----------|
G|----------5-------5-6-5----6-5---5---5---------|
D|-------5---------------------------------------| x3
A|---3-------------------------------------------|
E|-----------------------------------------------|

You can either repeat [post intro riff] or [main riff] 2 times here though the post intro riff is louder so i 
Play that as they occur at the same time. (I use my loop box to assist me)

It then returns to playing the main riff for another 4 times before the next bit.
Suggest correction
Give kudos to tab author, rate the tab!
1 2 3 4 5
comments
print report bad tab
guest
You may want to rate the tab now too:
select rating
Wanna post a correction for this tab? Suggest correction