Oops, an error
Loading. Please wait.

Hard Bark On The Family Tree Bass Tab

623 views 6 this week
no commentswrite comment
1 2 3 4 5
please rate
add to favorites
launch autoscroll
font size
0
reset
guitar tuner
Tab Pro tools
  • play this tab
  • loop segment
  • change instrument
  • show fretboard
  • metronome
Autoscroll
slow
fast
+/-
esc
set tempo
stop
Contributor
I did this off the guitar tab so feel free to correct it

|-----------------------------------------------------|
|-----------------------------------------------------|
|-7--7-7-7-7-7-7-----------7--7-7-7--7--7--7----------|
|--------8-8-8-8---------------------------8----------|



|-----------------------------------------------------|
|-----------------------------------------------------|
|-7-7-7-----------------------------------------------|
|--------0-0--0-0--2-2-2-2-3-3-3----------------------|

|-----------------------------------------------------|
|-----------------------------------------------------|
|-7-7-7------------3-3-3-3-0-0-0----------------------|
|--------0-0--0-0-------------------------------------|x4



|-----------------------------------------------------|
|-----------------------------------------------------|
|-7--7-7-7-7-7-7-----------7--7-7-7--7--7--7----------|
|--------8-8-8-8---------------------------8----------|x2



|-----------------------------------------------------|
|-----------------------------------------------------|
|-7-7-7-----------------------------------------------|
|--------0-0--0-0--2-2-2-2-3-3-3----------------------|

|-----------------------------------------------------|
|-----------------------------------------------------|
|-7-7-7------------3-3-3-3-0-0-0----------------------|
|--------0-0--0-0-------------------------------------|x4



|-----------------------------------------------------|
|-0~--------------------------------------------------|
|-0~--------------------------------------------------|
|-----------------------------------------------------|



|-----------------------------------------------------|
|-----------------------------------------------------|
|-7-7-7-----------------------------------------------|
|--------0-0--0-0--0-0--0-0---------------------------|x4
comments
We did not receive enough feedback on this tab! Please rate:
print report bad tab
1 2 3 4 5
I want to post or [tab]
guest
You may want to rate the tab now too:
select rating
Please do not post tabs as comments. Select "correction" instead!