Oops, an error
Loading. Please wait.

Morbid Symmetry Bass Tab

version 1
version 1

Intro

Interactive

1,711 views 6 this week
no commentswrite comment
1 2 3 4 5
please rate
add to favorites
launch autoscroll
font size
0
reset
guitar tuner
Autoscroll
slow
fast
+/-
esc
set tempo
stop
Help us to improve Ultimate-Guitar.com Take our survey!
×
Difficulty
intermediate
         Very fast this Hammer
G:------------------------------------------------------------------|
D:------------------------------------------------------------------|
A:-------7h10-10-10-9-9-9-8-8-8-7-7-7--------5-5-5-8-8-8-7-7-7------|
E:-0-0-0-----------------------------0-0-0--------------------------|
                         Fast
G:------------------------------------------------------------------|
D:------------------------------------------------------------------|
A:-------7h10-10-10-9-9-9-8-8-8-7-7-7--------5h7-7-7-7-7------------|
E:-0-0-0-------------------------------0-0-0-------------6-6-6-6----|
Suggest correction
Give kudos to tab author, rate the tab!
1 2 3 4 5
comments
print report bad tab
guest
You may want to rate the tab now too:
select rating
Wanna post a correction for this tab? Suggest correction