Oops, an error
Loading. Please wait.

Flowers Bass Tab

10 views 1 this week
no commentswrite comment
1 2 3 4 5
3 more votes to show rating
add to favorites
launch autoscroll
font size
0
reset
guitar tuner
Autoscroll
slow
fast
+/-
esc
set tempo
stop
Help us to improve Ultimate-Guitar.com Take our survey!
×
Author
Difficulty
-------------------------------------------------------------------------------
                             FLOWERS - HAWAIIAN GREMLINS
-------------------------------------------------------------------------------
Tabbed by: BranxBass
E-mail: brandon_magadan.o@hotmail.com

[Intro/Verse]
(0:02)

G|-------------------------------------------------------------|
D|----------------------------------------3-3-3-3-3-3----------|
A|--3-3-3-3-3-3-3-3-3-3-3--------------------------------------|  x8
E|--------------------------5-5-5-5-5-5------------------------|

[Chorus]
(0:47)
G|-------------------------------------------------------------|
D|-------------------------------------------------------------|
A|--5-5-5-5-5-5-5-5-5-5-5--------------------------------------| x2  
E|-------------------------------3-3-3-3-3-3-3-3-3-3-3---------|

G|-------------------------------------------------------------|
D|-------------------------------------------------------------|
A|--7-7-7-7-7-7-7-7-7-7-7--------5-5-5-5-5-5-5-5-5-5-5---------|  
E|-------------------------------------------------------------|

G|-------------------------------------------------------------|
D|-------------------------------------------------------------|
A|--7-7-7-7-7-7-7-7-7-7-7--------5-5-5-5-5-5-------------------|  
E|-------------------------------------------3-3-3-3-3---------|

[Verse]
(1:09)
G|-------------------------------------------------------------|
D|----------------------------------------3-3-3-3-3-3----------|
A|--3-3-3-3-3-3-3-3-3-3-3--------------------------------------|  x4
E|--------------------------5-5-5-5-5-5------------------------|

[Chorus]
(1:31)
G|-------------------------------------------------------------|
D|-------------------------------------------------------------|
A|--5-5-5-5-5-5-5-5-5-5-5--------------------------------------| x2  
E|-------------------------------3-3-3-3-3-3-3-3-3-3-3---------|

G|-------------------------------------------------------------|
D|-------------------------------------------------------------|
A|--7-7-7-7-7-7-7-7-7-7-7--------5-5-5-5-5-5-5-5-5-5-5---------|  
E|-------------------------------------------------------------|

G|-------------------------------------------------------------|
D|-------------------------------------------------------------|
A|--7-7-7-7-7-7-7-7-7-7-7--------5-5-5-5-5-5-------------------|  
E|-------------------------------------------3-3-3-3-3---------|

[Verse]
(1:53)
Silence the first time to 2:04

G|-------------------------------------------------------------------------------------------|
D|---------------------------------------------------------------------3-3-3-3-3-3-3-3-3-3-3-|
A|--3-3-3-3-3-3-3-3-3-3-3-3-3-3-3-3-3-3-3-3-3-3----------------------------------------------| x3
E|-----------------------------------------------5-5-5-5-5-5-5-5-5-5-5-----------------------|

[Chorus]
(2:37)
G|-------------------------------------------------------------|
D|-------------------------------------------------------------|
A|--5-5-5-5-5-5-5-5-5-5-5--------------------------------------| x4  
E|-------------------------------3-3-3-3-3-3-3-3-3-3-3---------|

G|-------------------------------------------------------------|
D|-------------------------------------------------------------|
A|--7-7-7-7-7-7-7-7-7-7-7--------5-5-5-5-5-5-5-5-5-5-5---------|  
E|-------------------------------------------------------------|

G|-------------------------------------------------------------|
D|-------------------------------------------------------------|
A|--7-7-7-7-7-7-7-7-7-7-7--------5-5-5-5-5-5-------------------|  
E|-------------------------------------------3-3-3-3-3---------| End ...
Suggest correction
Give kudos to tab author, rate the tab!
1 2 3 4 5
comments
print report bad tab
guest
You may want to rate the tab now too:
select rating
Wanna post a correction for this tab? Suggest correction