Oops, an error
Loading. Please wait.

Bring Em Out Bass Tab

3,348 views 3 this week
no commentswrite comment
1 2 3 4 5
2 more votes to show rating
add to favorites
launch autoscroll
font size
0
reset
guitar tuner
Autoscroll
slow
fast
+/-
esc
set tempo
stop
Help us to improve Ultimate-Guitar.com Take our survey!
×
Bring 'Em Out by Hawk Nelson

This isn't perfect but this is how i play it and there were no other tabs on here.

Intro
All the girls and the boys and the people making noise just let me hear you shout bring 
out bring 'em out

G)------------------------|
D)------------------------|
A)2~--------------2~------|
E)------------------------|

Chorus
G)---------------------------|
D)----2222------------22224--|
A)2222----2222----2222-------|
E)------------3333-----------| x2
                          bring 'em out bring 'em out
Verse
G)--------------------|
D)4-----------2~--4~--|
A)-2~------2~---------|
E)--------------------| x2

G)---------------------|
D)4-------------2~--4~-|
A)-2--2--2--2-2~-------|
E)---------------------| x2

G)-----------------------|
D)------------------2----|
A)2--2--2--------2-----2-|
E)-----------------------|

G)---------------------------------|
D)----22~--44~--22~-------22~--44--|
A)2~-----------------22~-----------|
E)---------------------------------| x2

Chorus
All the girls and the boys and people making noise just let me hear you
shout bring 'em out bring 'em out

G)---------------------------------|
D)--------22222222-----------------|
A)22222222--------22222222---------|
E)------------------------33333333-|

Verse
G)--------------------|
D)4-----------2~--4~--|
A)-2~------2~---------|
E)--------------------| x2

G)---------------------|
D)4-------------2~--4~-|
A)-2--2--2--2-2~-------|
E)---------------------| x2

G)-----------------------|
D)------------------2----|
A)2--2--2--------2-----2-|
E)-----------------------|

G)---------------------------------|
D)----22~--44~--22~-------22~--44--|
A)2~-----------------22~-----------|
E)---------------------------------| x3

G)---------------------------------------------|
D)----22~--44~--22~--2222222222222222444444444-|
A)2~-------------------------------------------|
E)---------------------------------------------|

Interlude
(after the second time of the guitar riff)
G)------------------------|
D)------2~----------4~----|
A)2~----------4~----------|
E)------------------------| x2

G)----------------------------------|
D)--------2-2-22-2--------4-4-44-4--|
A)2-2-22-2--------4-4-44-4----------|
E)----------------------------------| x2

G)----------------------------------|
D)--------22222222--------44444444--|
A)22222222--------44444444----------|
E)----------------------------------| x2

G)----------------------------------|
D)--------2-2-22-2--------4-4-44-4--|
A)2-2-22-2--------2-2-22-2----------|
E)----------------------------------| x2

G)---------------------------------|
D)--------4-4-44-4--------6-6-66-6-|
A)4-4-44-4--------4-4-44-4---------|
E)---------------------------------|

G)----------------------------------|
D)--------4-4-44-4--------666666666-|
A)4-4-44-4--------4-4-44-4----------|
E)----------------------------------|

Chorus
G)---------------------------|
D)----2222------------22224--|
A)2222----2222----2222-------|
E)------------3333-----------| x2
                          bring 'em out bring 'em out
G)-------------------------|
D)----2222------------2222-|
A)2222----2222----2222-----|
E)------------3333---------| x2
                          bring 'em out bring 'em out
Suggest correction
Give kudos to tab author, rate the tab!
1 2 3 4 5
comments
print report bad tab
guest
You may want to rate the tab now too:
select rating
Wanna post a correction for this tab? Suggest correction