Oops, an error
Loading. Please wait.

Crazy Love Tab

version 3
version 3

Whole song

311 views 6 this week
no commentswrite comment
1 2 3 4 5
please rate
add to favorites
launch autoscroll
font size
0
reset
how to read this tab
guitar tuner
Autoscroll
slow
fast
+/-
esc
set tempo
stop
Help us to improve Ultimate-Guitar.com Take our survey!
×
Author
Difficulty
Tabbers playing skills
intermediate
intermediate ++
-----------------------------------------------------------------
     Crazy Love - Hawk Nelson
-----------------------------------------------------------------
Tabbed by: StarrGuitarist
Email: Starrguitarist@Gmail.com

Tuning: Standard ebgdaE



Intro Rhythm
e|---------------------------------------------------------------|
B|---------------------------------------------------------------|
G|----------------------------        ---------------------------|
D|--7--9-10--5-3-5------------  X2    ---------------------------|
A|--7--9-10--5-3-5------------        ---------------------------|
E|--5--7-8---3-1-3-----------------------------------------------|

Intro Lead
e|---------------------------------------------------------------|
B|---------------------------------------------------------------|
G|---------------------------------------------------------------|
D|----14---------------------------------------------------------|
A|----x----------------------------------------------------------|
E|----12---------------------------------------------------------|

Verse 1
e|---------------------------------------------------------------|
B|---------------------------------------------------------------|
G|-----------------------      ----------------------------------|
D|---7----3----10---5----  X2  ----------------------------------|
A|---7----3----10---5----      ----------------------------------|
E|---5----1----8----3--------------------------------------------|

Chorus
e|---------------------------------------------------------------|
B|---------------------------------------------------------------|
G|---------------------------------------------------------------|
D|--7--9-10--5-3-5-----------------------------------------------|
A|--7--9-10--5-3-5-----------------------------------------------|
E|--5--7-8---3-1-3-----------------------------------------------|

Post-Chorus
e|---------------------------------------------------------------|
B|---------------------------------------------------------------|
G|---------------------------------------------------------------|
D|--7-9-10-10----------------------------------------------------|
A|--7-9-10-10----------------------------------------------------|
E|--5-7-8--8-----------------------------------------------------|

Verse 2
e|---------------------------------------------------------------|
B|---------------------------------------------------------------|
G|-----------------------      ----------------------------------|
D|---7----3----10---5----  X2  ----------------------------------|
A|---7----3----10---5----      ----------------------------------|
E|---5----1----8----3--------------------------------------------|

Chorus
e|---------------------------------------------------------------|
B|---------------------------------------------------------------|
G|---------------------------------------------------------------|
D|--7--9-10--5-3-5-----------------------------------------------|
A|--7--9-10--5-3-5-----------------------------------------------|
E|--5--7-8---3-1-3-----------------------------------------------|



Solo Lead
Solo Lead
e|---------------------------------------------------------------|
B|---------------------13h15--15b17r15--13----15b17r15-13-17-----|
G|---------------12h14---------------------14--------------------|
D|---------12h14-------------------------------------------------|
A|--12h15--------------------------------------------------------|
E|---------------------------------------------------------------|

e|----15-------------|
B|-15b17r15-13-15----|
G|-------------------|
D|-------------------|
A|-------------------|
E|-------------------|

e|---------------------------------------------------------------|
B|--15-13-12-----12----------------------------13h15-------------|
G|------------14----14-12-14-12----------12h14-------------------|
D|------------------------------14-12h14-------------------------|
A|---------------------------------------------------------------|
E|---------------------------------------------------------------|


e|----------------------------------------------------15----------|
B|-10--10---12--12--12---13--13--15--15--15--13-15-15b17r15-13s17-|
G|-12b-12b--14b-14b-14b--15b-15b-17b-17b-17b----------------------|
D|----------------------------------------------------------------|
A|----------------------------------------------------------------|
E|----------------------------------------------------------------|


e|---17---17--17--17--17--17-------------------------------------|
B|---20b--20b-20b-20b-20b-20b--20br------------------------------|
G|---------------------------------------------------------------|
D|---------------------------------------------------------------|
A|---------------------------------------------------------------|
E|---------------------------------------------------------------|

Solo Rhythm
e|---------------------------------------------------------------|
B|---------------------------------------------------------------|
G|---------------------------------------------------------------|
D|--3----10----7----5--------------------------------------------|
A|--3----10----7----5--------------------------------------------|
E|--1----8-----5----3--------------------------------------------|

Pre-Chorus
e|---------------------------------------------------------------|
B|---------------------------------------------------------------|
G|---------------------------------------------------------------|
D|---7----3----10---5--5--5--5-----------------------------------|
A|---7----3----10---5--5--5--5-----------------------------------|
E|---5----1----8----3--3--3--3-----------------------------------|

Chorus
e|---------------------------------------------------------------|
B|---------------------------------------------------------------|
G|---------------------------------------------------------------|
D|--7--9-10--5-3-5-----------------------------------------------|
A|--7--9-10--5-3-5-----------------------------------------------|
E|--5--7-8---3-1-3-----------------------------------------------|



Outro Solo
e|--------------------------------------------------------------|
B|---------------------------------10---------------------------|
G|--------------5-7-7b9r7-5---5-7-7b9r7-5s9-7-5-7-5-4-----------|
D|----------5-7-------------7-------------------------7-5-7-5---|
A|------5-7---------------------------------------------------7-|
E|--5-8---------------------------------------------------------|

e|---------------------------------------------------------------|
B|-----------------10--10--10--10--10--10--10--10--10--10--------|
G|------------5h7--12b-12b-12b-12b-12b-12b-12b-12b-12b-12b-------|
D|-------5h7-----------------------------------------------------|
A|---5h7---------------------------------------------------------|
E|---------------------------------------------------------------|

e|--15b17r15-------------15b17r15--------------------------------|
B|-----------13-12-13-15----------12-----------------------------|
G|---------------------------------------------------------------|
D|---------------------------------------------------------------|
A|---------------------------------------------------------------|
E|---------------------------------------------------------------|

Repeat this last part indefinitely for the echo or just end with an A power chord.

| /  slide up
| \  slide down
| h  hammer-on
| p  pull-off
| ~  vibrato
| +  harmonic
| x  Mute note
| b  Bend Note
| r  Return from bend 

If you have any problems or want me to tab something else just email me and I’ll 
see what I can do!
Suggest correction new What's this?
You can suggest a correction to this tab. Community and Mods will review your correction and vote to approve or reject it.
comments
We did not receive enough feedback on this tab! Please rate:
print report bad tab
1 2 3 4 5
guest
You may want to rate the tab now too:
select rating
Please do not post tabs as comments. Select "correction" instead!