Oops, an error
Loading. Please wait.

Friend Like That Bass Tab

3,206 views 1 this week
2 commentsread comments
1 2 3 4 5
accurate
x 3
add to favorites
launch autoscroll
font size
0
reset
guitar tuner
Autoscroll
slow
fast
+/-
esc
set tempo
stop
Help us to improve Ultimate-Guitar.com Take our survey!
×
Author
Difficulty
novice
intro
g------------------------------------|
d------------------------------------|
a-333---------------333--------------|
e-----333--555--111-----333--555--11-|

verse
g----------------------------------------|repeat
d----------------------------------------|repeat
a-333333---------------------------------|repeat
e---------333333--555555--111111---------|repeat

pre-chorus
g-----------------------------------|
d-----------------------------------|          do this on the last time
a-3-3-------------X4--3-------------|
e-----3-35-5-1-1--------3-----------|

chorus
g-------------------------|
d-------------------------|
a-3333-----------------X4-|
e------3333-5555-1111-----|

g-----------------|
d-----------------|
a-333333----------|
e--------333333---|

intro x1
verse x2
pre-chorus x4
chorus x4

g------------------------------------------------------------------------|  repeat the
d---------------------------------------------------------------  last 4-|
a-----33333333033333333---33333---------------33333-------------  note---| x1
e--------------------------------33333--55555-------33333--55555---------|

chorus x8
pre-chorus x4


last note:
g----
d----
a-3--
e----
Suggest correction
What's this?
You can suggest a correction to this tab. Community and Mods will review your correction and vote to approve or reject it.
comments
We did not receive enough feedback on this tab! Please rate:
print report bad tab
1 2 3 4 5
2 comments total.
+1 reply
tjzellner 17 wrote on August 25 2008, 12:35 pm

the intro is like this
-------------------------------------------------------------------
-------------------------------------------------------------------
-3-3-3------------3-3-3
------3-3-3-1-3-5-------3-3-3--5-5-5--1-1-1

0 reply
mike_biro727 255 wrote on July 20 2009, 10:25 pm

the intro/verse plays a, f, g, then c ur a little off

guest
You may want to rate the tab now too:
select rating
Please do not post tabs as comments. Select "correction" instead!