Oops, an error
Loading. Please wait.

Hello Tab

version 4
version 4

Whole song

1,193 views 1 this week
1 commentread comment
1 2 3 4 5
1 last vote to show rating
add to favorites
launch autoscroll
font size
0
reset
how to read this tab
guitar tuner
Autoscroll
slow
fast
+/-
esc
set tempo
stop
Help us to improve Ultimate-Guitar.com Take our survey!
×
Author
ARTIST: HAWK NELSON
SONG NAME: HELLO / STANDARD TUNING



INTRO
|---------------------------------------------|
|---------------------------------------------|
|-5-5-5-5-5-------------5-5-5-5-5-------------|
|-5-5-5-5-5--3-3-3-3-3--5-5-5-5-5--5-5-5-5-5--|
|-3-3-3-3-3--3-3-3-3-3--3-3-3-3-3--5-5-5-5-5--|
|------------1-1-1-1-1-------------3-3-3-3-3--|

intro thing which is also played during the chorus
|---------------------------------------------|
|---------------------------------------------|
|-5-5-5-5-7-7/9-7-5-----5-5-5-5-7-7/9-7-5-9-7-|
|-------------------5-3-----------------------|
|---------------------------------------------|
|---------------------------------------------|

|-------------------------------------------------|
|-------------------------------------------------|
|-5-5-5-5-7-7/9-7-5-----7-7-----5-5-7-7-7/9-9-7-5-|
|-------------------5-3-----2-2-------------------|
|-------------------------------------------------|
|-------------------------------------------------|

verse
|--------------------------------------------|
|--------------------------------------------|
|-5-5-5-5-5-------------5-5-5-5-5------------|
|-5-5-5-5-5--3-3-3-3-3--5-5-5-5-5--5-5-5-5-5-|
|-3-3-3-3-3--3-3-3-3-3--3-3-3-3-3--5-5-5-5-5-|
|------------1-1-1-1-1-------------3-3-3-3-3-|

|--------------------------------------------|
|--------------------------------------------|
|-5-5-5-5-5----------------------5-5-5-5-----|
|-5-5-5-5-5--3-3-3-3-3---7~--5~--5-5-5-5-----|
|-3-3-3-3-3--3-3-3-3-3---7~--5~--3-3-3-3-----|
|------------1-1-1-1-1---5~--3~--------------|


chorus 
|--------------------------------------------|
|--------------------------------------------|
|-5-5-5-5-5-------------5-5-5-5-5------------|
|-5-5-5-5-5--3-3-3-3-3--5-5-5-5-5--5-5-5-5-5-|
|-3-3-3-3-3--3-3-3-3-3--3-3-3-3-3--5-5-5-5-5-|
|------------1-1-1-1-1-------------3-3-3-3-3-|

|--------------------------------------------|
|--------------------------------------------|
|-5-5-5-5-5----------------------------------|
|-5-5-5-5-5--3-3-3-3-3--7-7-7-7-7--5-5-5-5-5-|
|-3-3-3-3-3--3-3-3-3-3--7-7-7-7-7--5-5-5-5-5-|
|------------1-1-1-1-1--5-5-5-5-5--3-3-3-3-3-|

|--------------------------------------------|
|--------------------------------------------|
|-5-5-5-5-5-------------5-5-5-5-5------------|
|-5-5-5-5-5--3-3-3-3-3--5-5-5-5-5--5-5-5-5-5-|
|-3-3-3-3-3--3-3-3-3-3--3-3-3-3-3--5-5-5-5-5-|
|------------1-1-1-1-1-------------3-3-3-3-3-|

|--------------------------------------------|
|--------------------------------------------|
|-5-5-5-5-5----------------------------------|
|-5-5-5-5-5--3-3-3-3-3--7-7-7-7-7--5-5-------|
|-3-3-3-3-3--3-3-3-3-3--7-7-7-7-7--5-5-------|
|------------1-1-1-1-1--5-5-5-5-5--3-3-------|

you can figure the kazoo solo and the part 
b4 that our really easy with the stuff above

and the KEY CHANGE CHORUS is one step higher
so just move every power chord up two fretts

Suggest correction
Give kudos to tab author, rate the tab!
1 2 3 4 5
comments
print report bad tab
1 comment total.
0 reply
jesus4life23 127 Apr 19, 2009 08:21 AM

You need to show the rest of the song, man.

guest
You may want to rate the tab now too:
select rating
Wanna post a correction for this tab? Suggest correction