Oops, an error
Loading. Please wait.

Hello Tab

version 5
version 5
1,486 views 1 this week
no commentswrite comment
1 2 3 4 5
excellent!
x 3
add to favorites
launch autoscroll
font size
0
reset
how to read this tab
guitar tuner
Tab Pro tools
  • play this tab
  • loop segment
  • change instrument
  • show fretboard
  • metronome
Autoscroll
slow
fast
+/-
esc
set tempo
stop
Contributor
Tabbers playing skills
intermediate
Tuning: Standard (EADGBe)

| x  rake muted string
| U  up-stroke
| D  down-stroke
| \  down-slide
| h  hammer-on

Extra fun to jam out to. Try it. ;)

[Intro] *Note: To match the track, quickly mute each chord with your palm right after 
playing it to make a choppy kind of sound
{Part 1}
e|-------------------------------------------|
B|-------------------------------------------|
G|--x-------------------------------7-7-7-7--|
D|--x-5-5-5-5-------------5-5-5-5---5-5-5-5--|
A|--x-3-3-3---3-3-3-3-3---3-3-3---3----------|
E|--------------1-1-1---1--------------------|
    U D D D     D D D     D D D     D D D D
{Part 2}
e|----------------------------------------------|
B|------------5---------------------5------5-3--|
G|--5-5-5-5-7---7-5-------5-5-5-5-7---7-5-------|
D|-------------------5-3------------------------|
A|----------------------------------------------|
E|----------------------------------------------|

e|-----------------------------------------------------|
B|------------5-----------3-3-------1-1--5-5--5-5-3-3--|
G|--5-5-5-5-7---7-5------------------------------------|
D|-------------------5-3-------3-2---------------------|
A|-----------------------------------------------------|
E|-----------------------------------------------------|

(Rhythm not posted)
     C5  F5      G5          A5
e|-----------------------------------|
B|-----------------------------------|
G|---5-------5-------5---------------|
D|---5---3---5---5---5---3---7---5---|
A|---3---3---3---5---3---3---7---5---|
E|-------1-------3-------1---5---3---|

[Verse 1]-Only bass and drums until halfway through. After that, play:
e|-----------------------------------------------|
B|-----------------------------------------------|
G|------------------------------------7-7-7-7\5--|
D|--10\5-5-5-5-------------5-5-5-5----5-5-5-5\3--|
A|-----3-3-3---3-3-3-3-3---3-3-3---3-------------|
E|---------------1-1-1---1-----------------------|
       D D D     D D D     D D D      D D D D
e|-----------------------------------------|
B|-----------------------------------------|
G|-------------------------7-7-------------|
D|--5-5-5-5-------------5--5-5-5-5-5-5-5\--|
A|--3-3-3---3-3-3-3-3---3------3-3-3-3-3\--|
E|------------1-1-1---1--------------------|
    D D D     D D D     D  D D D D D D D

[Chorus]
{Part 1}
              C5           F5
Every time I want to say, "Hello"
              C5           G5
Every time I want to stay, I go
                    C5               F5
Can't ever find the words to let you know
               A5             G5
Sometimes you play my mind a million times

{Part 2} Play Intro {Part 2} underneath the whole chorus, and play this halfway
through the second repeat of the chorus (starting at "words")
e|---------|      e|-------|
B|---------|      B|-------|
G|--9-7-5--| x7   G|--9-7--|
D|---------|      D|-------|
A|---------|      A|-------|
E|---------|      E|-------|


[Verse 2] Again, mostly just drums and bass, but when the guitar does come in it plays this:
e|--------------------------------------------|
B|--5h6-5---8-8h10-8---5h6-5--3-3--5-5-5-5-5--|
G|--5---5----------5---5---5--0-0--5-5-5-5-5--|
D|--------------------------------------------|
A|--------------------------------------------|
E|--------------------------------------------|
    D   D          D   D   D  D D  D D D D D

[Bridge]-Strum the chorus power chords once every chord change when he sings the chorus quietly

[Last Chorus]
{Part 1} (D5 is -577-- and B5 is -244--)
              D5           G5
Every time I want to say, "Hello"
              D5           A5
Every time I want to stay, I go
                    D5               G5
Can't ever find the words to let you know
               B5             A5
Sometimes you play my mind a million times
{Part 2}
e|---------------------------------------------------------- |         \
B|------------7---------------------7------7-5--|        --- |
G|--7-7-7-7-9---9-7-------7-7-7-7-9---9-7-------|        --- |
D|-------------------7-5------------------------|        --- |
A|----------------------------------------------|        --- |
E|----------------------------------------------|        --- | x2
                                                          |
e|-----------------------------------------------------| -- |
B|------------7-----------5-5-------3-3--5-5--7-7-5-5--| -- |
G|--7-7-7-7-9---9-7------------------------------------| -- |
D|-------------------7-5-------5-4---------------------| -- |
A|-----------------------------------------------------| -- |
E|--------------------------------------------------------- |  /

Start playing this at the three-quarters mark like normal
e|----------|      e|--------|
B|----------|      B|--------|
G|--11-9-7--| x7   G|--11-9--|
D|----------|      D|--------|
A|----------|      A|--------|
E|----------|      E|--------|

End on a soulful D5. God bless and have fun with it. ;)
comments
We did not receive enough feedback on this tab! Please rate:
print report bad tab
1 2 3 4 5
I want to post or [tab]
guest
You may want to rate the tab now too:
select rating
Please do not post tabs as comments. Select "correction" instead!