Oops, an error
Loading. Please wait.

Is Forever Enough Tab

version 1
version 1

Whole song

Interactive

3,269 views 1 this week
5 commentsread comments
1 2 3 4 5
please rate
add to favorites
launch autoscroll
font size
0
reset
how to read this tab
guitar tuner
Autoscroll
slow
fast
+/-
esc
set tempo
stop
Help us to improve Ultimate-Guitar.com Take our survey!
×
Author
Difficulty
Tuning
intermediate
D A D G B E
Hey this is my first tab =) I couldnt find one anywhere on the net for this song so i
i would tab it. Im pretty sure its right I tabbed it for One guitar so i could play it
my band lol This song is another  awesome work of hawk nelson  who rules =P
U can contact me at mlock91@hotmail.com on msn or add me on myspace at www.myspace.com/guitar_playing_matt

Its tuned to drop d

D a d g b e

Song:Is Forever Enough
Artist:Hawk Nelson

Intro: 2X

D------------6-------1-------------------|
a-1~~3-6-5-6---6-5-6---6-5-6~~8-6-5-6-5--|v
d----------------------------------------|
g----------------------------------------|
b----------------------------------------|
e----------------------------------------|

D---------5-------8--------------------|
a-3-6-5-6---6-5-6---6-5-6~~8-6-5-1-----|
d--------------------------------------|
g--------------------------------------|
b--------------------------------------|
e--------------------------------------|

Verse: 2X

D-1010-xx-x-1010-xx-x-1010-xx-x-66-88-|
a-1010-xx-x-1010-xx-x-1010-xx-x-66-88-|
d-1010-xx-x-1010-xx-x-1010-xx-x-66-88-|
g-------------------------------------|
b-------------------------------------|
e-------------------------------------|

D-1010-xx-x-1010-xx-x-1010-xx-x-13-88-|
a-1010-xx-x-1010-xx-x-1010-xx-x-13-88-|
d-1010-xx-x-1010-xx-x-1010-xx-x-13-88-|
g-------------------------------------|
b-------------------------------------|
e-------------------------------------|

Pre-Chorus: 1X

 palm mute here

D-10101010-6666-8888-3333--------------|
a-10101010-6666-8888-3333--------------|
d-10101010-6666-8888-3333--------------|
g--------------------------------------|
b--------------------------------------|
e--------------------------------------|

 Dont palm mute the 3rd fret here

D-10101010-6666-8888-3-3-3--------------|let ring-then pause
a-10101010-6666-8888-3-3-3--------------|let ring-then pause
d-10101010-6666-8888-3-3-3--------------|let ring-then pause
g---------------------------------------|
b---------------------------------------|
e---------------------------------------|


Chorus: 2X

 These are 1s not elevens =) dont get confused

D-11111111-66666666-1010101010101010-8888-6666-|
a-11111111-66666666-1010101010101010-8888-6666-|
d-11111111-66666666-1010101010101010-8888-6666-|
g----------------------------------------------|
b----------------------------------------------|
e----------------------------------------------|


Intro: 1X

D---------6-------1-------------------|
a-3-6-5-6---6-5-6---6-5-6~~8-6-5-6-5--|v
d-------------------------------------|
g-------------------------------------|
b-------------------------------------|
e-------------------------------------|

D---------5-------8------------------|
a-3-6-5-6---6-5-6---6-5-6~~8-6-5-1---|
d------------------------------------|
g------------------------------------|
b------------------------------------|
e------------------------------------|


Verse: 2X

D-1010-xx-x-1010-xx-x-1010-xx-x-66-88-|
a-1010-xx-x-1010-xx-x-1010-xx-x-66-88-|
d-1010-xx-x-1010-xx-x-1010-xx-x-66-88-|
g-------------------------------------|
b-------------------------------------|
e-------------------------------------|

D-1010-xx-x-1010-xx-x-1010-xx-x-13-88-|
a-1010-xx-x-1010-xx-x-1010-xx-x-13-88-|
d-1010-xx-x-1010-xx-x-1010-xx-x-13-88-|
g-------------------------------------|
b-------------------------------------|
e-------------------------------------|


Pre-Chorus: 1x

 palm mute here

D-10101010-6666-8888-3333-----------------|3X
a-10101010-6666-8888-3333-----------------|3X
d-10101010-6666-8888-3333-----------------|3X
g-----------------------------------------|3X
b-----------------------------------------|3X
e-----------------------------------------|3X

 Dont palm mute the 3rd fret here

D-10101010-6666-8888-3-3-3--------------|let ring-then pause
a-10101010-6666-8888-3-3-3--------------|let ring-then pause
d-10101010-6666-8888-3-3-3--------------|let ring-then pause
g---------------------------------------|
b---------------------------------------|
e---------------------------------------|


Chorus: 2X

 These are 1s not elevens =) dont get confused

D-11111111-66666666-1010101010101010-8888-6666-|
a-11111111-66666666-1010101010101010-8888-6666-|
d-11111111-66666666-1010101010101010-8888-6666-|
g----------------------------------------------|
b----------------------------------------------|
e----------------------------------------------|

Vocals drums and bass here, there is a little lead but i dont feel like tabbing it its late and im tired

D-3-3-3---| let ring then pause
a-3-3-3---| let ring then pause
d-3-3-3---| let ring then pause
g---------| let ring then pause
b---------| let ring then pause
e---------| let ring then pause


Chorus: 2X


D-1-1-11-6-6-66------------------6--------------|
a-1-1-11-6-6-66-1~~3-3-3-3-1-1-1-6--------------|
d-1-1-11-6-6-66-x~~5-5-5-x-3-3-3-6--------------|
g---------------3~~5-5-5-5-3-3-3----------------|
b-----------------------------------------------|
e-----------------------------------------------|

Bridge: 1X

D-------------------------------6666666-----|
a-66666666-11111111-666-3-5-666-6666666-----|
d-88888888-33333333-888-x-x-888-6666666-----|
g-88888888-33333333-888-5-7-888-------------|
b-------------------------------------------|
e-------------------------------------------|


D-----------------------------------|
a-66-666-666-666-6 11-111-111-111-1-|
d-88-888-888-888-8-33-333-333-333-3-|
g-88-888-888-888-8-33-333-333-333-3-|
b-----------------------------------|
e-----------------------------------|


D------------------66-666-666-666-66-|
a-33-333-333-333-3-66-666-666-666-66-|
d-55-555-555-555-5-66-666-666-666-66-|
g-55-555-555-555-5-------------------|
b------------------------------------|
e------------------------------------|


Intro: 1X

D------------6-------1-------------------|
a-1~~3-6-5-6---6-5-6---6-5-6~~8-6-5-6-5--|v
d----------------------------------------|
g----------------------------------------|
b----------------------------------------|
e----------------------------------------|

D---------5-------8--------------------|
a-3-6-5-6---6-5-6---6-5-6~~8-6-5-1-----|
d--------------------------------------|
g--------------------------------------|
b--------------------------------------|
e--------------------------------------|


End 1X

D-1010-xx-x-1010-xx-x-1010-xx-x-66-88-|
a-1010-xx-x-1010-xx-x-1010-xx-x-66-88-|
d-1010-xx-x-1010-xx-x-1010-xx-x-66-88-|
g-------------------------------------|
b-------------------------------------|
e-------------------------------------|

this is in order of the song enjoy! =P
Suggest correction
What's this?
You can suggest a correction to this tab. Community and Mods will review your correction and vote to approve or reject it.
comments
We did not receive enough feedback on this tab! Please rate:
print report bad tab
1 2 3 4 5
5 comments total. Showing first comments.
+1 reply
zeppelinfanmatt 39 wrote on August 27 2007, 10:47 pm

i forgot ~~ means slide and v means vibrato =)

+1 reply
Invisible Girl 209 wrote on August 30 2007, 07:29 pm

this is a pretty good for your first tab!! great job!!!

+1 reply
zeppelinfanmatt 39 wrote on August 30 2007, 10:00 pm

thanks =)

guest
You may want to rate the tab now too:
select rating
Please do not post tabs as comments. Select "correction" instead!