Oops, an error
Loading. Please wait.

Is Forever Enough Tab

version 2
version 2

Whole song

Interactive

2,322 views 1 this week
4 commentsread comments
1 2 3 4 5
please rate
add to favorites
launch autoscroll
font size
0
reset
how to read this tab
guitar tuner
Tab Pro tools
  • play this tab
  • loop segment
  • change instrument
  • show fretboard
  • metronome
×
Best way to learn
"Is Forever Enough"
Autoscroll
slow
fast
+/-
esc
set tempo
stop
Contributor
Difficulty
intermediate
Well, this is my first tab so it might not be perfect but hey, at least I tried!

Standard tuning
* = Palm Mute
/ = Slide Up
~ = Let Ring

 Repeat Here
      ||
      \/
e|-3-|---------------------------------|
B|-3-|---------------------------------|
G|-5-|---------------------------------|  x4 and let last note on 4th ring
D|-5-|---------------------------------|
A|-3-|-6-5/6---6-5/6---6-5/6-8-6-5-6-5-|
E|-3-|-------4-------6-----------------|

e|-3-3---3-3---3-3---6-6--6-6-|
B|-3-3---3-3---3-3---6-6--6-6-|
G|-5-5---5-5---5-5---6-6--8-8-|  x4
D|-5-5---5-5---5-5---8-8--8-8-|
A|-3-3---3-3---3-3---8-8--6-6-|
E|-3-3---3-3---3-3---6-6--6-6-|

e|----------------------------------------|
B|----------------------------------------|
G|-5555----------------5555---------------|
D|-5555-6666-8888-3333-5555-6666-8888-333-|
A|-3333-6666-8888-3333-3333-6666-8888-333-|
E|------4444-6666-1111------4444-6666-111-|
   ***  ***  ***  ***  ***  ***  ***

e|-66666666-44444444-33-33---6666-4444-66666666-44444444-33-33---6666-4444-|
B|-66666666-44444444-33-33---6666-4444-66666666-44444444-33-33---6666-4444-|
G|-88888888-44444444-33-33---6666-4444-88888888-44444444-55-55---6666-4444-|
D|-88888888-66666666-55-55---8888-6666-88888888-66666666-55-55---8888-6666-|
A|-66666666-66666666-55-55---8888-6666-66666666-66666666-33-33---8888-6666-|
E|-66666666-44444444-33-33---6666-4444-66666666-44444444-33-33---6666-4444-|

 Repeat Here
      ||
      \/
e|-3-|---------------------------------|
B|-3-|---------------------------------|
G|-5-|---------------------------------|  x2 and hold last note on 4th
D|-5-|---------------------------------|
A|-3-|-6-5/6---6-5/6---6-5/6-8-6-5-6-5-|
E|-3-|-------4-------6-----------------|

e|-3-3---3-3---3-3---6-6--6-6-|
B|-3-3---3-3---3-3---6-6--6-6-|
G|-5-5---5-5---5-5---6-6--8-8-|  x4
D|-5-5---5-5---5-5---8-8--8-8-|
A|-3-3---3-3---3-3---8-8--6-6-|
E|-3-3---3-3---3-3---6-6--6-6-|

e|-----------------------------------------|
B|-----------------------------------------|
G|-5555----------------5555----------------|
D|-5555-6666-8888-3333-5555-6666-8888-3333-|
A|-3333-6666-8888-3333-3333-6666-8888-3333-|
E|------4444-6666-1111------4444-6666-1111-|
   ***  ***  ***  ***  ***  ***  ***  ***

e|----------------------------------------|
B|----------------------------------------|
G|-5555----------------5555---------------|
D|-5555-6666-8888-3333-5555-6666-8888-333-|
A|-3333-6666-8888-3333-3333-6666-8888-333-|
E|------4444-6666-1111------4444-6666-111-|
   ***  ***  ***  ***  ***  ***  ***  

e|-66666666-44444444-33-33---6666-4444-66666666-44444444-33-33---6666-4444-|
B|-66666666-44444444-33-33---6666-4444-66666666-44444444-33-33---6666-4444-|
G|-88888888-44444444-33-33---6666-4444-88888888-44444444-55-55---6666-4444-|
D|-88888888-66666666-55-55---8888-6666-88888888-66666666-55-55---8888-6666-|
A|-66666666-66666666-55-55---8888-6666-66666666-66666666-33-33---8888-6666-|
E|-66666666-44444444-33-33---6666-4444-66666666-44444444-33-33---6666-4444-|

e|----------------------------------------|
B|----------------------------------------|
G|-5555----------------5555---------------|
D|-5555-6666-8888-3333-5555-6666-8888-333-|
A|-3333-6666-8888-3333-3333-6666-8888-333-|
E|------4444-6666-1111------4444-6666-111-|
   ***  ***  ***  ***  ***  ***  ***  

e|-6666~-4444~-3333---666-4-6666~-4444~-3333---666-444-|
B|-6666~-4444~-3333---666-4-6666~-4444~-3333---666-444-|
G|-8888~-4444~-3333---666-4-8888~-4444~-5555---666-444-|
D|-8888~-6666~-5555---888-6-8888~-6666~-5555---888-666-|
A|-6666~-6666~-5555---888-6-6666~-6666~-3333---888-666-|
E|-6666~-4444~-3333---666-4-6666~-4444~-3333---666-444-|

Well thats all I can figure out, sorry! If anyone has the rest please message me!!!
comments
We did not receive enough feedback on this tab! Please rate:
print report bad tab
1 2 3 4 5
4 comments total. Showing first comments.
+1 reply
kjay92 wrote on May 3 2008, 01:01 pm

Hey supdog, GREAT job! I found a few little mistakes that i figured i'd detail so you can try them out and/or change the tab if you agree.
For the beginning part, you tabbed...

"x4 and let last note on 4th ring
D|-5-|---------------------------------|
A|-3-|-6-5/6---6-5/6---6-5/6-8-6-5-6-5-|
E|-3-|-------4-------6-----------------|"

What i think the correct version would be is this the first time...

[Tab]
D|-----------------------------------------
A|-1-3-3-6-5/6-----6-5/6-----6-5/6-8-6-5-6~
E|-------------4-4-------3-3---------------

then this on the repeat skip the first little bit and go straight to the 6 on the A in the beginning ending with a 1 on the A like so...
D|---------------------------------
A|6-5/6-----6-5/6-----6-5/6-8-6-5-1~
E|------4-4-------3-3--------------

Then in the chorus (NOW I'LL TRY TO GIVE UP, I'LL TRY TO...) you put...
e|-66666666-44444444-33-33---6666-4444-66666666-44444444-33-33---6666-4444-|
B|-66666666-44444444-33-33---6666-4444-66666666-44444444-33-33---6666-4444-|
G|-88888888-44444444-33-33---6666-4444-88888888-44444444-55-55---6666-4444-|
D|-88888888-66666666-55-55---8888-6666-88888888-66666666-55-55---8888-6666-|
A|-66666666-66666666-55-55---8888-6666-66666666-66666666-33-33---8888-6666-|
E|-66666666-44444444-33-33---6666-4444-66666666-44444444-33-33---6666-4444-|

... which is just about right, but after listening to it 4000 times to see why it didn't sound QUITE the same when i played it, i came up with (and pretend i put the things a few times like you did)...

e|-6-4-33-33/11-44--6-
B|-6-4-33-33/11-44--
G|-8-5-33-33/33-55--
D|-8-6-55-55/33-66--
A|-6-6-55-55/11-66--
E|-6-4-33-33/11 44--

...then repeat.
Aside from that, it was an amazing job!
Thx,

~ kjay

+1 reply
kjay92 wrote on May 3 2008, 01:03 pm

oh, and kill the extra six in the e, that was a typo ~_~

0 reply
Noah Zark wrote on May 6 2009, 02:02 pm

this is played in drop C (sucks don't it? i hate drop C :() that's the only way to hit the low chords in the verse and the chorus good job though

I want to post or [tab]
guest
You may want to rate the tab now too:
select rating
Please do not post tabs as comments. Select "correction" instead!