Oops, an error
Loading. Please wait.

Its Over Tab

1,813 views 1 this week
1 commentread comment
1 2 3 4 5
please rate
add to favorites
launch autoscroll
font size
0
reset
how to read this tab
guitar tuner
Autoscroll
slow
fast
+/-
esc
set tempo
stop
Help us to improve Ultimate-Guitar.com Take our survey!
×
Difficulty
novice
e ----------------------------------------|
b ----5-6-5-----6-5--------5-6-5-----6-5--|
g 5-7-------5-7-----7--5-7-----5-7-------7|
d ----------------------------------------|
a ----------------------------------------|
e ----------------------------------------|


yep, thats it. this is my first tab so it might not be perfect but i tried really hard 
i think it is. Hawk Nelson ROCKS!!!!!
Suggest correction
Give kudos to tab author, rate the tab!
1 2 3 4 5
comments
print report bad tab
1 comment total.
0 reply
hnfan4eva 21 wrote on September 13 2008, 06:58 pm

i think it actually goes like this:
e|------------------------
b|-----5-h6-5--5-h6-5----
g|-5-h7-------7-------7--
d|------------------------
a|------------------------
e|------------------------

times however many times they do it...ok hawk nelson rocks!!!

guest
You may want to rate the tab now too:
select rating
Please do not post tabs as comments. Select "correction" instead!