Oops, an error
Loading. Please wait.

Lets Dance Tab

version 2
version 2

Whole song

Interactive

1,348 views 1 this week
2 commentsread comments
1 2 3 4 5
please rate
add to favorites
launch autoscroll
font size
0
reset
how to read this tab
guitar tuner
Autoscroll
slow
fast
+/-
esc
set tempo
stop
Help us to improve Ultimate-Guitar.com Take our survey!
×
Let’s Dance: Hawk Nelson
/=quarter note
x=palm mute
Tuning: Drop-D (or drop C#)

Intro:
E---------------------------------------------------|
B---------------------------------------------------|
G---------------------------------------------------|
D-5-8-5-5-8-5-0-3-0-0-3-0-7-10-7-7-10-7-0000/3333---|  x2
A-5-8-5-5-8-5-0-3-0-0-3-0-7-10-7-7-10-7-0000/3333---|
D-5-8-5-5-8-5-0-3-0-0-3-0-7-10-7-7-10-7-0000/3333---|

Guitar 2
Verse:1
E----------------------------------------|
B----------------------------------------|
G----------------------------------------|
D-5xx5xxxx-0xx0xxxx-7xx7xxxx-0000/3333---|  x2
A-5xx5xxxx-0xx0xxxx-7xx7xxxx-0000/3333---|
D-5xx5xxxx-0xx0xxxx-7xx7xxxx-0000/3333---|

Pre-Chorus
Guitar 1
E-3-3-3-2-3-3-3-2-2-5-5-5-5-3-0-2---|
B-----------------------------------|
G-----------------------------------|
D-----------------------------------|  x2
A-----------------------------------|
D-----------------------------------|

Chorus:
Guitar 1
E-3-2-3-2-3-2-3-2-2-1-2-1-2-1-2-1-3-2-3-2-3-2-3-2-2(hold)-1----|(hold)
B--------------------------------------------------------------|
G--------------------------------------------------------------|
D--------------------------------------------------------------|
A--------------------------------------------------------------|
D--------------------------------------------------------------|
Chorus
Guitar 2
E-----------------------------------------------------|
B-----------------------------------------------------|
G-----------------------------------------------------|
D-7/7/7/7/7/7/7/7-5-5-3-3-5/5/5/5/5/5/5/5-3-3-0-0-----|  x2
A-7/7/7/7/7/7/7/7-5-5-3-3-5/5/5/5/5/5/5/5-3-3-0-0-----|
D-7/7/7/7/7/7/7/7-5-5-3-3-5/5/5/5/5/5/5/5-3-3-0-0-----|


Riff:
Guitar 2
E------------------------------------------------------------|
B------------------------------------------------------------|
G------------------------------------------------------------|
D-5-8-5-5/5-8-5-0-3-0-0/0-3-0-7-10-7-7/7-10-7-0000/3333------|
A-5-8-5-5/5-8-5-0-3-0-0/0-3-0-7-10-7-7/7-10-7-0000/3333------|
D-5-8-5-5/5-8-5-0-3-0-0/0-3-0-7-10-7-7/7-10-7-0000/3333------|

Guitar 2
Verse:2
E------------------------------------------|
B------------------------------------------|
G------------------------------------------|
D-5xx5-8-5-0xx0-3-0-7xx7xxxx-0000/3333-----|  x2
A-5xx5-8-5-0xx0-3-0-7xx7xxxx-0000/3333-----|
D-5xx5-8-5-0xx0-3-0-7xx7xxxx-0000/3333-----|


(Repeat pre chorus and chorus)

Bridge:
guitar 1
E-5-3-5-5/3/3-5-3-5-3-5-3-5-5/3/3-5-3-5-3---------------|
B-------------------------------------------------------|
G-------------------------------------------------------|
D-------------------------------------------------------|  x2
A-------------------------------------------------------|
D-------------------------------------------------------|

Bridge:
Guitar 2
E-----------------------------------------------------|
B-----------------------------------------------------|
G-----------------------------------------------------|
D-5-3-5-5/3/3-5-3-5-3-5-3-5-5/3/3-6/6/6/6/8/8/8/8-----|
A-5-3-5-5/3/3-5-3-5-3-5-3-5-5/3/3-6/6/6/6/8/8/8/8-----|
D-5-3-5-5/3/3-5-3-5-3-5-3-5-5/3/3-6/6/6/6/8/8/8/8-----|

Chorus:
starts out with just drums, then on the third line guitar two does this
E----------------------------------------|
B----------------------------------------|
G----------------------------------------|
D-5-----------------3------------------0-|
A-5-----------------3------------------0-|
D-5-----------------3------------------0-|

Then play the chorus normal then guitar 2 just does this for the outro.
Outro
guitar 1
E------------------|
B------------------|
G------------------|
D-3----------------|
A-3----------------|(hold for one measure and fade out)
D-3----------------|
Suggest correction
Give kudos to tab author, rate the tab!
1 2 3 4 5
comments
print report bad tab
2 comments total.
0 reply
guitr4God 10 wrote on July 9 2009, 06:45 pm

This is my tab every1 (sorry, i posted it b4 i made an account), I say use the other 1s on here. This 1 I kind of figured out on accident while playing along with the song (imrovising). I just wanted 2 post it 2 c how accutate my ear was. If u do use this tab PLEASE RATE IT!!

0 reply
guitr4God 10 wrote on July 9 2009, 06:46 pm

O, and it does sound better in drop C#, U play it exactly the same as it's tabbed tho.

guest
You may want to rate the tab now too:
select rating
Please do not post tabs as comments. Select "correction" instead!