Oops, an error
Loading. Please wait.

Like A Racecar Bass Tab

299 views 1 this week
no commentswrite comment
1 2 3 4 5
3 more votes to show rating
add to favorites
launch autoscroll
font size
0
reset
guitar tuner
Autoscroll
slow
fast
+/-
esc
set tempo
stop
Help us to improve Ultimate-Guitar.com Take our survey!
×
Author
Tuning
D A D G B E
Tuning: DROP D (G-D-A-D)
Song: Like A Racecar
Artist: Hawk Nelson

INTRO

G|---------------|------------------------------|----|
D|---------------|------------------------------|----|
A|---------------|---------------------3-----3--|----|
D|-03-03-03-03-0-|-X 6/7-X 7/8-X-8/7-X----X-----|-53-|

VERSE 1

G|------------------------|-------------------------|
D|------------------------|-------------------------|
A|------------------------|-------------------------|
D|-XX-5--XX-5--XX-5--XX-5-|-XX-8--XX-8--XX-8--XX-8--|

G|------------------------|-------------------------|
D|------------------------|-------------------------|
A|------------------------|-------------------------|
D|-XX-3--XX-3--XX-3--XX-3-|-------------------------|

CHORUS

G|-------|------------|---------|-------|----------|
D|-------|------------|---------|-------|----------|
A|-------|------------|---------|-------|----------|
D|-000-3-|-0000--0000-|-3333-333|-03-03-|-03-03-0--|
                                                      ](REPEAT IF NECESSARY)
G|--------------------------------------------------|
D|--------------------------------------------------|
A|--------------------------------------------------|
D|-0-6/7--0-7/8--0-8/7--0-10--0-10------------------|

GUITAR PART

G|---|--------------------|-----------------------|-----------|
D|---|--------------------|-----------------------|-----------|
A|---|--------------------|-----------------------|-----------|
D|-5-|-XX-8--X-8--X-8-X-8-|-XX-3--XX-3--XX-3--XX3-|-XX5--XX-5-|

REPEAT CHORUS
VERSE 1
Suggest correction
Give kudos to tab author, rate the tab!
1 2 3 4 5
comments
print report bad tab
guest
You may want to rate the tab now too:
select rating
Wanna post a correction for this tab? Suggest correction