Oops, an error
Loading. Please wait.

Long Ago Bass

257 views 1 this week
no commentswrite comment
1 2 3 4 5
1 last vote to show rating
add to favorites
launch autoscroll
font size
0
reset
guitar tuner
×
Best way to learn
"Long Ago"
Autoscroll
slow
fast
+/-
esc
set tempo
stop
Author
Difficulty
novice
this is the first song ive learned on bass, so its pretty simplified... but it 
follows the bass line well...
enjoy!



(music comes in)
G------------66666666-------------------------|
D--77777777------------44444444---7777777-----|
A---------------------------------------------|
E---------------------------------------------|

"can we get back to the basics...
G------------------------------------------|
D----------------------44444444--00000000--|
A--00000000--44444444----------------------|
E------------------------------------------|


"sometimes the least of my problems...
G------------------------------------------|
D----------------------44444444--00000000--|
A--00000000--44444444----------------------|
E------------------------------------------|


"it would be so easy...
(pre-chorus)
G---------|
D---------|
A--22-----|
E------3--|


"i cant sleep tonight...
(chorus)
G-------------------------------------------------------------------|
D-------------------------------------------------------------------|
A--0000--------4444-5555--0000----------------0000--------4444-5555-|
E--------0000-------------------0000-22222222--------0000-----------|

G----------------------------------------|
D----------------------------------------|
A--0000-----------------0000--------5----|
E--------3333-22222222--------3333-------|


"i saw you out on the freeway...
G------------------------------------------|
D----------------------44444444--00000000--|
A--00000000--44444444----------------------|
E------------------------------------------|


"all the lights in the city...
G------------------------------------------|
D----------------------44444444--00000000--|
A--00000000--44444444----------------------|
E------------------------------------------|


"i cant sleep tonight...
G-------------------------------------------------------------------|
D-------------------------------------------------------------------|
A--0000--------4444-5555--0000----------------0000--------4444-5555-|
E--------0000-------------------0000-22222222--------0000-----------|

G----------------------------------------|
D----------------------------------------|
A--0000----------------0000--------5~----|
E--------3333-22222222--------3333-------|


"all this time...
(bridge)
G----------------------------------------------------|
D--------6-7~6----------------------00000000-3-|
A----4--------------------------44444444-------------|
E--2------------------22222222-----------------------|


"i cant sleep tonight...
G-------------------------------------------------------------------|
D-------------------------------------------------------------------|
A--0000--------4444-5555--0000----------------0000--------4444-5555-|
E--------0000-------------------0000-22222222--------0000-----------|

G----------------------------------------|
D----------------------------------------|
A--0000----------------0000--------5~----|
E--------3333-22222222--------3333-------|

Suggest correction
Give kudos to tab author, rate the tab!
1 2 3 4 5
comments
print report bad tab
guest
You may want to rate the tab now too:
select rating
Wanna post a correction for this tab? Suggest correction