Oops, an error
Loading. Please wait.

Long And Lonely Road Bass Tab

715 views 1 this week
no commentswrite comment
1 2 3 4 5
x 3
add to favorites
launch autoscroll
font size
0
reset
guitar tuner
Autoscroll
slow
fast
+/-
esc
set tempo
stop
Help us to improve Ultimate-Guitar.com Take our survey!
×
Author
Difficulty
novice
Artist: Hawk Nelson
Song: Long and Lonely Road
Album: Smile, It's the End of the World
{Tooth and Nail Records}

This song is pretty fast and is played with a pick

Intro:

G--------------------------------------------------------------------|
D-------------------------------------------------------------112244-|
A---222222222222222233333333333333332222-222-222-2223333333333-------|
E--------------------------------------------------------------------|

Verse 1:

G-----------------------------------------------------------------|
D-------------------------11-11------------------------111-111-1--|
A-22-222-222-222-2-------------1-122-222-222-222------------------|
E-----------------00-000-0----------------------200-000-----------|

Pre-Chorus:

G-------------------------------------------------------|
D--------------------------------------------------<1>--|
A-------------------------------------------------------|
E--000000002222222244444444222222220000000022222222-----|

Chorus:

G-----------------------------------------------------------|
D-----------------------------------------22222222----------|
A-22222222--------22222222--------22222222--------2222------|
E---------00000000--------22222222--------------------2222--|

Pre-Verse Thingy:

G------------------------------------|
D----------------------------112244--|
A--22222222222222223333333333--------|
E------------------------------------|

Verse 2:

G-43-------------------|
D---42-1121-----112244-|
A----------2-----------|
E-----------0000-------| REPEAT ONCE

Shorter Pre-Chorus:

G------------------------------------|
D------------------------------------|
A------------------------------------|
E--00000000222222224444444422222222--|

Chorus x1

Bridge:

G------------------------------------------------------------------------|
D------------------------------------------------------------1-11111111--|
A-------2-21----------------------------2-1------------------------------|
E--0-02-----20-02-24-42-0000000022222222----20000000022222222------------|

G-------------|
D--11111111---|
A-------------|
E-------------|

Vocals and Guitar for first half of Chorus then play second half.

Repeat chorus

Riff thingy/ short guitar solo:

G------------------------------------|
D------------------------------------|
A--2222----2222----2222--------------|
E------0000----2222----000044442222--|


Honest promise... part:

G-------------------------|
D-------------------------|
A--22-22-----22-22-11-11--|
E-------00-00-------------| PLAY 6 TIMES

This is what I hear when I play it, and I'm pretty sure it's all correct. If there are any problems
that you see in it, feel free to email me at relientk3468@gmail.com. Enjoy!
Suggest correction
Give kudos to tab author, rate the tab!
1 2 3 4 5
comments
print report bad tab
guest
You may want to rate the tab now too:
select rating
Wanna post a correction for this tab? Suggest correction