Oops, an error
Loading. Please wait.

One Thing I Have Left tab

version 3
version 3

Interactive

6,283 views 3 this week
11 commentsread comments
1 2 3 4 5
x 16
add to favorites
×
Save as Personal and add changes to this tab that will be seen only by you. Learn more ›
×
You can save this tab as Personal to edit and correct it or add notes. All changes will be seen only by you. Learn more »
launch autoscroll
font size
0
reset
how to read this tab
guitar tuner
edit
Autoscroll
slow
fast
+/-
esc
set tempo
stop
One of my Favorite songs, I made it special
for HN fans

(_) play if wanted
[___] words during wherever the symbol
comes up
~=hold note
---
    >
---  
=play these bars/riffs with instruments all
at once

Gtr. 1= Lead Guitar
Gtr. 2= Rythm Guitar
Bass= c'mon you know this hehe

and by the way, if you want to
switch gtrs 1 and 2, you can,
that might be a BIT easier
(depending on how you play) 

                      The One thing I Have Left
                             Hawk Nelson

Intro, just the clinka, cinka sound and
sliding junk- can't really tab it

VERSE 1
Gtr. 1
E---------------------------------------------------------------|
B---------------------------------------------------------------|
G---------------------------------------66-66-44-99-66469-------|
D---------------------------------------66-66-44-99-66469-------|
A---------------------------------------44-44-22-77-44247-------|
E---------------------------------------------------------------|
Gtr. 2                                                           >
E---------------------------------------------------------------|
B---------------------------------------------------------------|
G---6-6-6-6~-9-9-9-9~-4-4-4-4~-6-6-6-6~-------------------------|
D---6-6-6-6~-9-9-9-9~-4-4-4-4~-6-6-6-6~-------------------------|
A---4-4-4-4~-7-7-7-7~-2-2-2-2~-4-4-4-4~-------------------------|
E---------------------------------------------------------------|
  Bass                                                           >
G---------------------------------------------------------------|
D---------------------------------------------------------------|
A---------------------------------------------------------------|
E---5-5-5-5~-8-8-8-8~-3-3-3-3~-5-5-5-5~(555-333-888-33355)------|
 [would someone...]

The Bass is a bit more noticable than
Gtr.2, also this should last 1 line
of the Verse so play it x4

PRE-CHORUS
Gtr. 1
E-------------------------------------------|
B-------4-1~---3-1~---4-1~---3-1~--4-1~-----|
G-------------------------------------------|
D-------------------------------------------|
A-------------------------------------------|
E-------------------------------------------|
Gtr. 2                                       >
E-------------------------------------------|
B-------------------------------------------|
G---4-4~---6-6~---9-9~---6-6~---4-4~--6-6~--|
D---4-4~---6-6~---9-9~---6-6~---4-4~--6-6~--|
A---2-2~---4-4~---7-7~---4-4~---2-2~--4-4~--|
E-------------------------------------------|
Bass                                         >
G-------------------------------------------|
D-------------------------------------------|
A-------------------------------------------|
E---2-2~---4-4~---8-8~---4-4~---2-2~--4-4~--|
[There's got to...]

This should last the whole thing too
and the base is more noticable.
After playing that above
play...
Gtr.1
E-----------------|
B-----------------|
G--66-66-44-99----|
D--66-66-44-99----|
A--44-44-22-77----|
E-----------------|
Bass               >
G-----------------|
D-----------------|
A-----------------|
E--555-333-888----|

CHORUS
Gtr. 1
E---------------------------------------------------------------------------|
B---------------------------------------------------------------------------|
G---------------------------------------------------------66-66-44-99-66469-|
D---------------------------------------------------------66-66-44-99-66469-|
A---------------------------------------------------------44-44-22-77-44247-|
E---------------------------------------------------------------------------|
Gtr.2
E-------------------------------------------------------------------------|
B-------------------------------------------------------------------------|
G-------------------------------------------------------------------------|
D---77777777999999991212121212121212999999997777777799-9-9----------------|
A---77777777999999991212121212121212999999997777777799-9-9----------------|
E---55555555777777771010101010101010777777775555555577-7-7----------------|
Bass                                                                       >
G-------------------------------------------------------------------------|
D-------------------------------------------------------------------------|
A-------------------------------------------------------------------------|
E---33333333555555558-8-8-8-8-8-8-8-555555553333333355-5-5----------------|


You know the lyrics. 
Oh, and I couldn't make things
line up where the 8s are (for the bass) 
so I spaced em out, but really 
just play it like the rest.
Also, Gtr. 1 and 2 are still connected and
played how I put em down, I just didn't
have enough space. After playing above
reapeat and play this for Gtr.1
(and bass) instead of the
other thing (but only the 2nd time)
Gtr.1
E---------------------|
B---------------------|
G--66-66-44-99-66469--|
D--66-66-44-99-66469--|
A--44-44-22-77-44247--|
E---------------------|
Bass                   >
G---------------------|
D---------------------|
A---------------------|
E--555-333-888-33355--|

VERSE 2
Gtr.1, or 2, your choice
E--------------------------55--33--11--0-01---|
B----------------------------33--33--11-1-----|
G--------66-66-44-99-66469--------------------|
D--------66-66-44-99-66469--------------------|
A--------44-44-22-77-44247--------------------|
E---------------------------------------------|
[let you
down]

Play above then play
Gtr. 1
E-----------------------55--33--11--0-01-------------------------------|
B-------------------------33--33--11-1---------------------------------|
G-----66-66-44-99-66469------------------------------------------------|
D-----66-66-44-99-66469------------------------------------------------|
A-----44-44-22-77-44247------------------------------------------------|
E----------------------------------------------------------------------|
Gtr. 2                                                                  >
E-----------------------55--33--11--0-01-------------------------------|
B-------------------------33--33--11-1---------------------------------|
G----------------------------------------------------------------------|
D----------------------------------------------------------------------|
A----------------------------------------------------------------------|
E----------------------------------------------------------------------|
Bass                                                                    >
G----------------------------------------------------------------------|
D----------------------------------------------------------------------|
A----------------------------------------------------------------------|
E-----555-333-888-33335------------------------------------------------|

Reapeat until VERSE 1 is over
then play the
PRE-CHORUS then the
CHORUS
then play

FILL
Gtr. 1
E---------------------------------------------------------------------|
B--6-66666-6-2/1-6-66666-6-2/1-6-666666-6-2/1-6-66666-6-2/1-----------|
G---------------------------------------------------------------------|
D---------------------------------------------------------------------|
A---------------------------------------------------------------------|
E---------------------------------------------------------------------|

FILL (part 2)
Gtr. 1
E-----------------------------------------------------------------------|
B-----------------------------------------------------------------------|
G--22--2222-2----2-222-2----2-222-2----2-222-2-2-----373----------------|
D--22--2222-2-32-2-222-2-32-2-222-2-32-2-222-2-2-2-3437343--------------|
A--00--0000-0-32-0-000-0-32-0-000-0-32-0-000-0-0-2-3415143--------------|
E-------------10---------10---------10-----------0-12---21--------------|
Bass                                                                     >
G-----------------------------------------------------------------------|
D-----------------------------------------------------------------------|
A---2--2222-2----2-222-2----2-222-2----2-222-2-2---13531----------------|
E-------------32---------32---------32-----------33-----3~--------------|
Reapeat until the hey's come in which
is below
Part 3
Gtr. 1
E----------------------------------------------------------------------|
B--------------55-5----------------------------------------------------|
G------------------4---------------------------------------------------|
D---2-22--22-22--------------------------------------------------------|
A---2-22--22-22--------------------------------------------------------|
E---0-00--00-00--------------------------------------------------------|
       [hey! hey!]
Repeat until finished and
to the we point the finger
part which is next

OUTRO
Gtr. 1
E--------------------------------------------|
B--------------------------------------------|
G----5-7-9-7-5-----5-7-9-7-5-----------------|
D--7-5-7-9-7-5-7-7-5-7-9-7-5-----------------|
A--7-3-5-7-5-3-7-7-3-5-7-5-3-----------------|
E--5-----------5-5---------------------------|
Gtr. 2                                         >
E--------------------------------------------|
B--------------------------------------------|
G----5-7-9-7-5------5-7-9-7-5----------------|
D--7-5-7-9-7-5-7~-7-5-7-9-7-5----------------|
A--7-3-5-7-5-3-7~-7-3-5-7-5-3----------------|
E--5-----------5~-5--------------------------|
Bass                                           >
G--------------------------------------------|
D--------------------------------------------|
A----3-5-7-5-3------3-5-7-5-3----------------|
E--5-----------5~-5--------------------------|
[we point...]                [Blame]

then
Gtr. 1
E---------------------------------------
B---------------------------------------
G-9--7--5-------------5-7-9-7-5---------
D-9--7--5-74--4--4--4--7-5-7-9-7-5-7!~--
A-7--5--3-74--4--4--4--7-3-5-7-5-3-7!~--
E---------52--2--2--2--5-----------5!~--
Gtr. 2                                   >
E---------------------------------------
B---------------------------------------
G-9--7--5----------------5-7-9-7-5------
D-9--7--5-7------------7-5-7-9-7-5-7!~--
A-7--5--3-7------------7-3-5-7-5-3-7!~--
E---------5------------5-----------5!~--
Bass                                  >
E---------------------------------------
B---------------------------------------
G---------------------------------------
D---------------------------------------
A-7--5--3----------------3-5-7-5-3------
E---------52--2--2--2--5-----------5!~--
  [BLAME!]         

That's it, there ya go
Here's the order

VERSE 1
PRE-CHORUS
CHORUS
VERSE 2
PRE-CHORUS
CHORUS
FILL (all parts)
OUTRO

Lyrics, ya need em'

Will someone please radio for help?
'cause I think I'm allergic to myself
And they think they can throw us all away
We gotta stop it before it's all too late

There's got to be a better way
They dissect everything we say
To try to make us feel this way

And you can take the one thing I have left
I'd give it all away for so much less
Can even take the heart inside my chest
Woah-woah.
And you can take the one thing I have left
Beat me to the ground and take my breath
But you can't take who I am
woah-woah.

And I swear we were born to let you down
We scream but never make a sound
We point but don't know which direction
We are America right now

There's got to be a better way
They dissect everything we say
To try to make us feel this way

And you can take the one thing I have left
I'd give it all away for so much less
Can even take the heart inside my chest
Woah-woah.
And you can take the one thing I have left
Beat me to the ground and take my breath
But you can't take who I am
woah-woah.

How can I be the same?
How can I say the blame?
How come I am so tired of all these charades?
How can I be the one?
How can I hold the gun?
How can I see if everyone else is to blame?

hey! hey!
Don't want to be the
hey! hey!
Don't want to see the
hey! hey!

'cause we point the finger
Think everyone else is to blame

Everyone else is to blame

            
            
Suggest correction
Creating personal tab
Creating personal tab
You can edit any tab online and save it as your Personal.

You can edit, replace or remove any tab part or add personal notes – all changes will be seen only by you.

Personal tabs can be accessed anytime from any device, even offline.
Learn more »
comments
print report bad tab
11 comments total. Showing first comments.
0 reply
awsomeguitarguy 152 Apr 21, 2007 08:03 AM

Ha, finally, I made a completely awesome tab with everything!
SWEET!!!!!!

0 reply
awsomeguitarguy 152 May 01, 2007 11:33 AM

Would someone please rate this (especially if it is 5 stars)

I'M GETTING TIRED OF WAITING!!!!!!!!!!!

0 reply
Guitarness12345 10 May 16, 2007 02:53 PM

SWEET Job, see, i rated it, WITH FIVE STARS, u gotta be like, awesome
bass, Gtr.1 Gtr.2, everything, awesome

EVERYONE GIVE THIS 5 STARS!!!!!!!!!!!
THIS GUY ROCKS!
ALL THE WAY
5 STAAAAAAAAAAAARS!!!!!!!!!!!!!!!!!!!!!!!!!!!!!!!!!

guest
You may want to rate the tab now too:
select rating
Wanna post a correction for this tab? Suggest correction