Oops, an error
Loading. Please wait.

Show tab

version 2
version 2

Whole song

Interactive

5,006 views 3 this week
2 commentsread comments
1 2 3 4 5
x 7
add to favorites
×
Save as Personal and add changes to this tab that will be seen only by you. Learn more ›
×
You can save this tab as Personal to edit and correct it or add notes. All changes will be seen only by you. Learn more »
launch autoscroll
font size
0
reset
how to read this tab
guitar tuner
edit
Autoscroll
slow
fast
+/-
esc
set tempo
stop
This song is in DROP C#. It took me awhile to figure out how to play the intro. But I finally got it.

|------------------------------------------|
|------------------------------------------|
|--9x7-7-6---------------------------------|
|----------9-7-7h9-6-----6---7-----7-7-7-6-|
|7x-------------------(7)-(7)---(7)--------|
|------------------------------------------|

()= play these notes pretty soft

Verse
|------------------|
|------------------|
|------------------|
|------------------|
|------------------|
|2--6-7--0-0-4-4\2-|
Now I cant really explain the rythym to you through a tab on that one.
But its not that hard.

Chorus
|-----------------|
|-----------------|
|-----------------|
|2--6-7-0-0-4-4-2-|
|2--6-7-0-0-4-4-2-|
|2--6-7-0-0-4-4-2-|

Weird intro
|------------------------------------------|
|------7-8-9-------------------------------|
|--9x7-7-8-9-------------------------------|
|------------7-7h9-6-----6---7-----7-7-7-6-|
|7x-------------------(7)-(7)---(7)--------|
|------------------------------------------|

These are the chords he plays on the interlude.
|----------|
|9-10-10-9-|
|9-9--9--9-|
|9-9--7--9-|
|----------|
|----------|

|------------------------------------------------
|99999109109-1010101010101010-1010101010999999999
|999999-99-9-9-9-9-9-9-9-9-9--9-9-9-9-9-999999999-|
|999999-99-9-9-9-9-9-9-9-9-9--7-7-7-7-7-999999999-|
|-------------------------------------------------|
|-------------------------------------------------|

|----------------|
|12--12--12--12--|
|14b-14b-14b-14--|b
|----------------|
|----------------|
|----------------|


|--------------|
|--------------|
|--------------|
|--------------|
|--------------|
|2-2-4/5-2-0---|

|-----------------------------------------------|
|-----------------------------------------------|
|-----------------------------------------------|
|2-2-4/5-2-0---2-2-4/5-2-0---2-2-4/5-2-0--0-1-2-|
|2-2-4/5-2-0---2-2-4/5-2-0---2-2-4/5-2-0--0-1-2-|
|2-2-4/5-2-0---2-2-4/5-2-0---2-2-4/5-2-0--0-1-2-|

Thats all :D It should be won haundred parcint.

            
            
Suggest correction
Creating personal tab
Creating personal tab
You can edit any tab online and save it as your Personal.

You can edit, replace or remove any tab part or add personal notes – all changes will be seen only by you.

Personal tabs can be accessed anytime from any device, even offline.
Learn more »
comments
print report bad tab
2 comments total.
+1 reply
Gojna 10 Aug 26, 2007 09:41 AM

Drop C would be CGCFAD. I think you've got it in Drop C#, which is C#G#C#F#A#D#

So the intro should be moved up one fret for it to be in Drop C.

Righto.

+1 reply
xdustballx 10 Aug 01, 2008 09:42 PM

I don't know whether he corrected it or not, but the song is in C#, and he tabbed it in C#.

guest
You may want to rate the tab now too:
select rating
Wanna post a correction for this tab? Suggest correction